Acordes de Guitarra » R »Ricardo Quinteros » Lo que necesito (Tab)

Lo que necesito
Ricardo Quinteros

Letras, Acordes y Tabs para Guitarra, Bajo y Ukulele

  • Intro :// G - Bm - D - G //
    
    
    Estrofa
      G              Bm              D             G
    //Lo que necesito   es tenerte siempre junto a mi
    G                 Bm            D            C
    Si no estás conmigo  no tengo razón para vivir
                        D                           C
    Si no estás conmigo-o día y noche siempre buscaré oir Tú voz //
    
              D                 C
    En mi corazón sentir Tú amo-or
    
    Coro
    Em                    Bm
    Si tu vás en mi barca-a no importa la tormenta
    C                D        Em           D        Em
     Tú mano siempre me ayudará  ( Siempre me ayudará )
                         Bm
    
  • INTRO A  C#m7  E   A (2 VECES)
    
    
     A                 C#m7                    E      A
    //Lo  que necesito     es tenerte siempre junto a mi
                          C#m7                  E     D
      si no estas conmigo      no tengo razon para vivir
                          E              Esus4       D
      si no estas conmigooo dia y noche siempre buscare
              E
      oir tu voz
                  D               E
      'EN MI CORAZON' sentir tu amor.//
    
    
    (CORO)
    
    
    F#m                     C#m7
       si tu vas en mi barcaaa no importa la tormenta
    
  •   INTRO: Bb Gm F/A-Bb Gm (x2)
    
      Notas:(mano derecha)
      Bb Bb C Bb F Bb C Bb Bb C Bb F Bb C Bb (x2)
    
     Bb                Gm7
      Lo que necesito
                          F/A     Bb
      Es tenerte siempre junto a mi
                          Gm7
      Si no estas conmigo
                        F    Eb
      No tengo razón para vivir
                         F
      Si no estas conmigo
                    Bb/D        Eb
      Dia y noche siempre buscare
              F   EB/G          F/A
      Oir tu voz    sentir tu amor   [x2]
     Gm7
    
  • Este es el solo de guitarra ojala les sea de ayuda y bendicion
    ojala lo puedan sacar atentos con los tiempos!!!!
    cualquier duda a mi correo fam_menendez_lemus@hotmail.com
    
    e||--------------------------|-------------------------|
    B||--------------------------|-------------------------|
    G||--------------------------|-------------------------|
    D||-----------------3--------|-------------------------|
    A||--1--3--4--3--4-----6--3--|--4--3--6--4--3----------|
    E||--------------------------|-----------------4--6----|
    
    ------------------------|-------------------------|------------------||
    ------------------------|-------------------------|-------9--6-------||
    --------6---------8b----|--8--6----8b----8--6--8--|--6---------------||
    --6--8-------8----------|-------------------------|------------------||
    ------------------------|-------------------------|------------------||
    ------------------------|-------------------------|------------------||
    
    eso es todo!!! sencillo!!! tmb me puedo el solo de g
  • este es el solo de guitarra ojala les sirva
    
    E)|---------------------------------------------------|
    B)|---------------------------------------------------|
    G)|---------------------------------------------------|
    D)|------------3-1------------------------------------|
    A)|--1-3-4-3-4-----3-4-1-3-4-6-4-3--------------------|
    E)|----------------------------------4-6--------------|
    
    
    E)|---------------------------------------------------|
    B)|----------------------------------------9----------|
    G)|--------6-----8s10--8-6—8s10--8-6-8-6------10------|
    D)|---6-8----8----------------------------------------|
    A)|---------------------------------------------------|
    E)|---------------------------------------------------|
    
    un saludo ala iglesia amigos en metapan
    cualquier duda o sugerencia no duden en escrivirme
    les dejo mi msn pleitez_900@hotmail.com
  • Intro: //A# Gm F A#//
    
    Verso:
    
    A#                 Gm                     F      A#
     //Lo que necesito    es tenerte siempre junto a mi
                           Gm                  F     D#
       si no estas conmigo    no tengo razon para vivir
                           F              Gm          D#
       si no estas conmigo   dia y noche siempre buscare
               F              Cm              F
       oir tu voz (en mi corazon) sentir tu amor.//
    
    Coro:
     Gm                       F                        D#
        si tu vas en mi barca   no importa la tormenta
                        F       Gm  F
        tu mano siempre me ayudara
     Gm                       F
        saber que vas conmigo   me hace descanzar
    
  • +
    ¡Colabora con nosotros!
    Envíanos tu versión de esta canción

Letra de Lo que necesito
Estrofa
//Lo que necesito es tenerte siempre junto a mi
Si no estás conmigo no tengo razón para vivir
Si no estás conmigo-o día y noche siempre buscaré oir Tú voz //
En mi corazón sentir Tú amo-or
Si tu vás en mi barca-a no importa la tormenta
Tú mano siempre me ayudará ( Siempre me ayudará )
Saber que vás conmigo-o me hace descansar
Aún sobre el mar caminaré--e
Aún sobre las nubes volaré
// Aún sobre las nubes volaré //
*Este es un adorno que puede
hacer el bajo eléctrico
si vuelven a repetir el final.
Lo que se encuentra en () es un adorno
que puede hacer la persona que está cantando.
Lo que se encuentra en "" se hace
en un tiempo de negrilla.




[Lo que necesito chords][Lo que necesito cifra]
© LaCuerda.net · aviso legal · privacidad · es · en · pt · contacto