Acordes de Guitarra » R »Reyli » Sin preocupación (Tab)

Sin preocupación
Reyli

Letras, Acordes y Tabs para Guitarra, Bajo y Ukulele

  • Intro: G D Am C     2 veces. Debes escucharla para agarrarle la onda o.k.
    
    1--3----3-----3---3-----3-----3-----------|--2-----2-----2---2----2-----2---------|
    2---3-----3-----3---3-----3-----2---------|----3-----3-----3---3----3-----3-------|
    3-----0-----0---------0-----0-------------|------2-----2---------2----2-----------|
    4-----------------------------------------|---------------------------------------|
    5-----------------------------------------|---------------------------------------|
    6-----------------------------------------|---------------------------------------|
    
    Este es el Arpegio
    
                G                D                 Am                   C
    1--3-----3------3---|--2-----2-----2---|--0-----0-----0---|--0-----0-----0---|
    2----3-----3------3-|----3-----3-----3-|----1-----1-----1-|----1-----1-----1-|
    3------0-----0------|-------2-----2----|------2-----2-----|------0-----0-----|
    4-------------------|------------------|------------------|------------------|
    5-------------------|------------------|------------------|------------------|
    6-------------------|------------------|------------------|------------------|
    
    Comienza la Rola con Arpegio.
    
  • +
    ¡Colabora con nosotros!
    Envíanos tu versión de esta canción

Letra de Sin preocupación
Este es el Arpegio
Comienza la Rola con Arpegio.
Me voy en paz si Dios me llama ahora mismo
No pasa nada confieso q´ me voy tranquilo
No, No existen enemigos ni cuentas q´ saldar
Entra la segunda guitarra con rasgueo.
Yo se q´ allá me encontrare al amigo q´ se fue
Sin avisar, para esperar a todos los demás
Con un trago de vino, para seguir cantando sin final
****Chorus: Las dos guitarras con rasgueo
Sin preocupación abrazándonos, pa´ q´ siga latiéndonos el corazón
Sin preocupación con la bendición, y usar como escenario la luna y el sol
Oleirole ioleirola si Dios me llama ahorita yo me voy en paz
Oleirole ioleirola pero con mi guitarra pa´ cantar allá.
Otra vez el arpegio.
Me voy en paz si Dios me llama ahora mismo
Sin olvidar a los causantes de sentirme vivo
A los q´ compartimos, la sangre y algo más
De Nuevo las dos guitarras
Yo se q´ allá, encontrare al Amor una vez más
Y en tu mirar seguirte amando sin final
Para vivir contigo, el sueño de alcanzar la eternidad
****Chorus: Las dos guitarras con rasgueo
Sin preocupación abrazándonos, pa´ q´ siga latiéndonos el corazón
Sin preocupación con la bendición, y usar como escenario la luna y el sol
Oleirole ioleirola si Dios me llama ahorita yo me voy en paz
Oleirole ioleirola pero con mi guitarra pa´ cantar allá.
.... Lorena esta es una pequeñísima prueba de q´ te Amo a Madres, si lo sabes verdad???




[Sin preocupación chords][Sin preocupación cifra]
© LaCuerda.net · aviso legal · privacidad · es · en · pt · contacto
DINAMICO