Acordes de Guitarra » R »Rey Ruiz » Corazón Arrepentido (Tab)

Corazón Arrepentido
Rey Ruiz

Letras, Acordes y Tabs para Guitarra, Bajo y Ukulele

  •                  C                              Am
    E||-------8--10--10----8--8h10p8--10-10h12-10-8-7h8p5--
    B||--8-------------------------------------------------
    G||----------------------------------------------------
    D||----------------------------------------------------
    A||----------------------------------------------------
    E||----------------------------------------------------
    
                     Dm           Fm
    E||--7-5-8-5-7-8-10h12-10-----1--------||
    B||-----------------------10----1------||
    G||-------------------------------1----||
    D||---------------------------------3--||
    A||------------------------------------||
    E||------------------------------------||
    
    
    
                C Am Dm Fm
    
    
  • +
    ¡Colabora con nosotros!
    Envíanos tu versión de esta canción

Letra de Corazón Arrepentido
Te fallé
Me atreví a traicionarte y ahora sé
Que no debí, que fui un cobarde.
Te perdí
Y no soy quien para robarte la alegría.
Me olvidé
De entregarme con el alma.
Te engañé
Y caí en mi propia trampa.
Comprendí
Que pedir perdón no alcanza
Pero es mi única esperanza.
Un corazón arrepentido
Es como un pájaro perdido.
Buscando va desesperado
Volver al nido.
Por eso vuelvo hasta tu puerta
Y de rodillas te lo pido
Déjame regresar...
Mírame,
Estos ojos aún te adoran
Dime que.
No soportas seguir sola.
Acéptame.
Juro que voy a quererte
esta vez seré más fuerte.
Sé que por mi error
Se te ha partido el corazón
Sé que te hice daño sin medir.
Más no lo acepto.
No me resigno.
Sin ti no se vivir...
(SUBE MEDIO TONO)
Un corazón arrepentido
Es como un pájaro perdido.
Buscando va desesperado
Volver al nido.
Por eso vuelvo hasta tu puerta
Y de rodillas te lo pido
Déjame regresar...
Un corazón arrepentido
Es como un pájaro perdido.
Buscando va desesperado
Volver al nido.
Por eso vuelvo hasta tu puerta
Y de rodillas te lo pido
Déjame regresar... contigo........

Video de Corazón Arrepentido
[]




[Corazón Arrepentido chords][Corazón Arrepentido cifra]
© LaCuerda.net · aviso legal · privacidad · es · en · pt · contacto