Acordes de Guitarra » R »Restos Fosiles » La máquina de perder (Tab)

La máquina de perder
Restos Fosiles

Letras, Acordes y Tabs para Guitarra, Bajo y Ukulele

  • e||-------------------------------------------||
    B||-------------------------------------------||
    G||--9---9--9---9--9------9------9-9-9/11-9-7-||
    D||-7--77--9--99--11-11-11--11-11-------------||
    A||-------------------------------------------||
    E||-------------------------------------------||
    
    RIFF 2 (Final)
    e||-----------------------------------------||
    B||-----------------------------------------||
    G||--9---9--9---9--9------9-/1313131313-----||
    D||-7--77--9--99--11-11-11------------------||
    A||-----------------------------------------||
    E||-----------------------------------------||
    
    
    
    
    
    RIFF 1
    
  • +
    ¡Colabora con nosotros!
    Envíanos tu versión de esta canción

Letra de La máquina de perder
RIFF 2 (Final)
RIFF 1
Ayer soñé... y te encontré, pidiéndome libertad...
Y si sientes el encierro, es de este encierro,
Y si sales de este infierno... eres un genio
Yo no vivo así,
Pero se que es real
Ya lo se!
Pero se que es verdad
Y abrazándote a la vida como perro sin su cuidador
Pedís pan y no te dan
Enemigos que en la vida dejaran treparte a tu balcón,
Tu maquina no puede mas
RIFF 1
Tarde no es para ser mejor,
Aunque estés de muy mal humor
Al no llegar las oportunidades,
Llegan momentos de gran temor
Siempre perdes Siempre perdes Siempre perdes
Y abrazándote a la vida como perro sin su cuidador
Tu maquina no puede mas, mas, mas
Tu maquina no puede mas,
Tu maquina no aguanta mas,
Tu maquina no quiere mas
mas, mas, mas, Tu maquina no puede mas
Tu maquina no aguanta mas,
Tu maquina no quiere mas
Rifff 2
No tienes mas para perder,
Tal vez tienes en que soñar
No tienes mas para perder,
Tal vez tienes en que soñar
No tienes mas para perder,

Video de La máquina de perder
[]




[La máquina de perder chords][La máquina de perder cifra]
© LaCuerda.net · aviso legal · privacidad · es · en · pt · contacto