Acordes de Guitarra » R »Rescate » No lo sé (Tab)

No lo sé
Rescate

Letras, Notas, Punteos, Tablaturas y Acordes de Guitarra (Tabs & Chords)

  • Letra y Acordes
    INTRO: F G F E   //Am - F//
    
    1er VERSO:
    
    Am                  F
    Como una visita inesperada
         Am
    Como ladrón en la noche,
       F
    sin avisar su llegada
    Am                      F
    Como las tormentas de verano
             Am
    El tiempo que te sorprende
          F
    Como es el tiempo tirano
    
    PRECORO:
    G       F          Am
     Nadie sabe cuando pasará
    
  • Tab p/Bajo
    No lo sé (BASS)
    
    INTRO
    
    G)---------------------------
    D)---------------------------
    A)---------------------------
    E)--8-8-8-8-8-10-10-7-7-7-7--
    
    G)-------------------------------------------
    D)-------------------------------------------
    A)---------------------------------5---------
    E)--5-5-5-8-3-3-5-3-5--5-5-5-8-3-3---3-5-----
    
    G)---------------------------------------------
    D)---------------------------------------------
    A)---------------------------------5-----------
    E)--5-5-5-8-3-3-5-3-5--5-5-5-8-3-3---3-5-5-5-5-
    
    G)----------------------------
    D)----------------------------
    A)----------------------------
    E)----------------------------
      Como una visita inesperada.
    
    G)-----------------------------------------------------
    D)-----------------------------------------------------
    A)-------------------------------------------5---------
    E)-5--5--5--5--3--3---5-----5--5--5--5--3--3-----------
      Como ladrón en la noche, sin avisar su llegada.
    
    G)------------
  • +
    ¡Colabora con nosotros!
    Envíanos tu versión de esta canción

Letra de No lo sé
1er VERSO:
Como una visita inesperada
Como ladrón en la noche,
sin avisar su llegada
Como las tormentas de verano
El tiempo que te sorprende
Como es el tiempo tirano
PRECORO:
Nadie sabe cuando pasará
Las señales sobran ya.
Corazones preparados van por la ciudad.
Al partir se abrirá una flor.
El placer de volar.
Brillarás tanto como el sol.
¿Cuándo será?
Oh, oh, oh,
No lo sé.
Oh, oh, oh.
2do VERSO:(misma secuencia que el primer verso)
Mente y cuerpo sanó me decían.
No tiene gracia querida,
si no hay perdón no hay salida.
No serán tus obras los laureles,
Será la gracia divina,
será el clamor de los fieles.
PRECORO:
Nadie sabe cuando pasará
Las señales sobran ya.
Corazones preparados van por la ciudad.
Al partir se abrirá una flor.
El placer de volar.
Brillarás tanto como el sol.
¿Cuándo será?
Cantaré la nueva canción,
Con los Santos en luz.
Volverá como prometió.
¿Cuándo será?
-
Oh, oh, oh,
No lo sé.
-
Se repite esa parte 5 veces y...
FINAL:
Oh, oh, oh,
No, no, no, no, no, no, no.



© LaCuerda.net · Aviso Legal · Privacidad