Tablatura para Guitarra de la Renga: A la carga mi rock and roll
Conexión · Inscripción
Letras y Acordes
Pantalla Completa
Imprimir
Versión Texto
Añadir Favorito
Otras Versiones

Mostrar Diagramas
Desfile Automático
Manipular Acordes
Formato del Texto


A la carga mi rock and roll(TAB)

la Renga

calidad:
reng0024
AUTOR: la Renga  corregir
ALBUM: desconocido
Enviado por pablo
Aca están los dos solos de saxo sacados para guitarra...
estan bastante aproximados.. bah creo.. dieh.. la base no la pongo
pq esta bien en la otra tab...


1er solo (la base es la misma q en todo el tema salvo los 4 primeros
compases que son RE - DO - RE - DO)

E||-------------------|-------------------|--------------------|
B||-------------------|-------------------|--10----------------|
G||--7----------------|--5----------------|--------------------|
D||-------------------|-------------------|--------------------|
A||-------------------|-------------------|--------------------|
E||-------------------|-------------------|--------------------|


                                                        estira semitono
-----------------------|--13b-----------22~---|----------12b---12b-12b-|
--8----8----8----------|----------------------|------------------------|
-----9----9------------|----------------------|------------------------|
-----------------------|----------------------|------------------------|
-----------------------|----------------------|------------------------|
-----------------------|----------------------|------------------------|



--12r-12-10~------------|---------------------------------|
------------------------|---------------------------------|
------------------------|--------12-----14b-14r---12--7---|
------------------------|--12h14----12--------------------|
------------------------|---------------------------------|
------------------------|---------------------------------|



------------------------------|
---------------15b-15r--------|
--------12-14-----------------|
--12h14-----------------------|
------------------------------|
------------------------------|



--------------------------------------------------|
--------------------------------------------------|
--------12-------12-------12-------12-------12----|
--12h14----12h14----12h14----12h14----12h14----12h|
--------------------------------------------------|
--------------------------------------------------|



--------------------------------------|--13b-13b-13r---13--12--10~---||
--------------------------------------|------------------------------||
-----12-------12-------12--14b-14r----|------------------------------||
--14----12h14----12h14----------------|------------------------------||
--------------------------------------|------------------------------||
--------------------------------------|------------------------------||



2do solo (el 1er compas esta medio precario... en la ultima nota estira
un tono y medio... o sea para llegar al traste 20)

E||--------------------------------|------------7--10b-10b------|
B||--------------------------------|------8h10------------------|
G||--12---12---12-12--12--12/-9----|--7h9-----------------------|
D||--------------------------------|----------------------------|
A||--------------------------------|----------------------------|
E||--------------------------------|----------------------------|



--------------10--13~--------|--13r-13-12--10-------------|
-------10h12-----------------|-----------------13b--------|
--9h12-----------------------|----------------------------|
-----------------------------|----------------------------|
-----------------------------|----------------------------|
-----------------------------|----------------------------|



--------15-------15-------15-------15-------15----|
--15h17----15h17----15h17----15h17----15h17----15h|
--------------------------------------------------|
--------------------------------------------------|
--------------------------------------------------|
--------------------------------------------------|


                                                   tono y medio
-----15-------15-------15-------15-------15-------|--------------------||
--17----15h17----15h17----15h17----15h17----15h17-|--17b---------------||
--------------------------------------------------|--------------------||
--------------------------------------------------|--------------------||
--------------------------------------------------|--------------------||
--------------------------------------------------|--------------------||



h = hammer on (ligado ascendente)
b = bendig (estirar cuerda)
/ = slide (arrastrar)
r = bend/release (estira y vuelve)



bueno es todo... es mi primer transcripcion asi q.. nuc... se
aceptan correcciones. jeje

nada mas....

AGUANTE LA RENGA... !! :D
Este fichero es trabajo propio de su transcriptor y representa su interpretación personal de la canción. El material contenido en esta página es
para exclusivo uso privado, por lo que se prohibe su reproducción o retransmisión, así como su uso para fines comerciales.

© LaCuerda.net · Aviso Legal · Privacidad