Acordes de Guitarra » R »René Inostroza » Dame tu pelo niña (Tab)

Dame tu pelo niña
René Inostroza

Letras, Acordes y Tabs para Guitarra, Bajo y Ukulele

  • SOL                                RE
    e-----------------------------------------------------------
    b-----------------------------------------------------------
    g-----------------------------------------------------------
    d-------2-------------2------------------2-----------2------
    a---2-5---5-2-----2-5---5-3-2-5----3-4-5---5---3-4-5--------
    e-3-----------3-3-----------------5-----------5-------------
    
    Riff 2
    SOL                                 RE
    e-----------------------------------------------------------
    b-------5-------------5------------------5-----------5------
    g---4-7---7-4-----4-7---7-5-4-5----5-6-7---7---5-6-7--------
    d-5-----------5-5-----------------7-----------7-------------
    a-----------------------------------------------------------
    e-----------------------------------------------------------
    
    
       SOL                              RE
    a)Quisiera yo ser espuma que le perfuma mi dulce amor
    
  • +
    ¡Colabora con nosotros!
    Envíanos tu versión de esta canción

Letra de Dame tu pelo niña
Riff 2
a)Quisiera yo ser espuma que le perfuma mi dulce amor
Quisiera estar en la playa donde se baña mi dulce amor
b)Dame tu pelo niña la maravilla de tu deidad
Dame tu pelo niña la maravilla de tu deidad
Riff 1
a)Que lindas son las arenas que mi morena acariciara
Y el agua cristalina de la laguna la bañara
b)Dame tu pelo niña la maravilla de tu deidad
Dame tu pelo niña la maravilla de tu deidad
Riff 2
a)Quisiera estar yo solito y darle un besito a mi dulce amor
Quisiera yo andar de noche paseando en coche a mi dulce amor
b)Dame tu pelo niña la maravilla de tu deidad
Dame tu pelo niña la maravilla de tu deidad
un saludo a la juventud campesina de Chile
y tambien a mi polola Karencita que la amo mucho
si alguien quiere tocar esta canción conmigo [stgo] daap22@hotmail.com




[Dame tu pelo niña chords][Dame tu pelo niña cifra]
© LaCuerda.net · aviso legal · privacidad · es · en · pt · contacto
DINAMICO