Acordes de Guitarra » R »Reciclaje » Yo gobierno (Tab)

Yo gobierno
Reciclaje

Letras, Acordes y Tabs para Guitarra, Bajo y Ukulele

  • G--------------------------------------------------------------------------
    D--------------------------------------------------------------------------
    A--3-3--2-2-------------3-3--2-2---000000*--3333333--55555555--------------
    E------------333333*---------------------------------------------333333333-
    
       C   B   G    A    C   D
    
    E---------------------------------------------------
    B---------------------------------------------------
    G--5---3-------------5---7--------------------------
    D--5---3---5----7----5---7--------------------------
    A--3---2---5----7----3---5--------------------------
    E----------3----5-----------------------------------
    
    
     G       C  B      A
     Callate ya no hables
    
           C                D             G
    No quiero escuchar tus verdades tus mentiras
    
  • +
    ¡Colabora con nosotros!
    Envíanos tu versión de esta canción

Letra de Yo gobierno
Callate ya no hables
No quiero escuchar tus verdades tus mentiras
Siempre yo soy el que angaña
Pero te gusta estar siempre a mi lado
En los demas versos toca la cancion
No t obligo a nada
siempre tu me eliges
y despues terminas quejandote me exijes
te conformas con lo poco que doy
comida dinero juegos veicios tu licor
No t obligo a nada
siempre tu me eliges
y despues terminas quejandote me exijes
te conformas con lo poco que doy
comida dinero juegos veicios tu licor
hay amor en ti en mi
es dificil cepararnos
y mas cuando ahy interes yo nunca t dejare
Este veres mas lento que los demas
No protestes amo mio
que yo a qui soy el que mando
soy el gobierno y tu mi esclavo
Lo primero que les digo, escuchen la cancion primero para que puedan tocarla.
Bueno gracias esta es mi primera tablatura que hago
para que me quieran escribir a mi correo este es: cesar_15data@msn.com
digan lo que quieran

Video de Yo gobierno
[]




[Yo gobierno chords][Yo gobierno cifra]
© LaCuerda.net · aviso legal · privacidad · es · en · pt · contacto