Acordes de Guitarra » R »Razones de Cambio » Luna (Tab)

Luna
Razones de Cambio

Letras, Acordes y Tabs para Guitarra, Bajo y Ukulele

  • e ------------11-12-11---------11-------14/16----------
    b -----12---12--------12-12/14----14-12-------14/16----
    g -/11---11--------------------------------------------
    D -----------------------------------------------------
    A -----------------------------------------------------
    E -----------------------------------------------------
     
    D -------------------------------------------
    A -------------------------------------------
    E -11-13-11-8/9-8-9-8-6----------------------
    D ----------------------9--------------------
    A -------------------------------------------
    E -------------------------------------------
     
    SI               MI  SI
    Haz visto vez alguna
                    MI   SI
    Como brilla la luna,
                         MI
    En la soledad de la noche
    
  • +
    ¡Colabora con nosotros!
    Envíanos tu versión de esta canción

Letra de Luna
Haz visto vez alguna
Como brilla la luna,
En la soledad de la noche
Pero sin embargo yo percibo paz
Yo percibo paz
Loco y amante,
No se,
Enamorado talvez,
De tu resplandor
Y tu belleza
Pues en esta soledad
Te reprocho mis errores
Una vez mas
Una vez mas
En el ocaso
De esta tarde gris

Oh! Luna buena,
Dime porque no puedo amarla
Y solamente soñarla
porque no puedo amarla
Y solamente soñarla

Entre deseos frustados
Entre historietas narradas,
Entre delirio y anciedad
oh dime luna...Ven! Dime porque?

Has visto a la luna




[Luna chords][Luna cifra]
© LaCuerda.net · aviso legal · privacidad · es · en · pt · contacto
DINAMICO