Acordes de Guitarra » R »Rata Blanca » Otoño medieval (Tab)

Otoño medieval
Rata Blanca

Letras, Acordes y Tabs para Guitarra, Bajo y Ukulele

  • B:--------------5-----------6-----5-----5----------------6-------------------|
    G:-----------------------------7-----7--------7--5--7-7----7--5--4--5----5---|
    D:-----------7-----7--------0--------------7--------0------------------------|
    A:--------0-----------------------------0------------------------------------|
    E:------------------------------------------------------------------1--1----1|
    
    
                                                       
    
    
    e:------------------------------------------------|
    B:------------------------------------------------|
    G:--4--------------5--4---------------------------|      
    D:-----7--6---6----------7----7-7----7----7-7-----|
    A:-----------------------0--0------0----0------0--|
    E:--------0-0---0---------------------------------|
    
    
    
    
    
  • B:-----------5-----5--------6-----5-----6-----5--5-------------------6-------|
    G:--------------5--------------7-----7-----7-------------7--5--7--7-----7----|
    D:--------------------------0--------------------------7-------0-------------|
    A:--------0-----------------------------------0-----0------------------------|
    E:---------------------------------------------------------------------------|
    
    
    e:---------------------------------------------------------------------------|
    B:---------------------------------------------------------------------------|
    G:--5--4--5-----5-----4--------------------4--5-----5-5----5-----5--5--------|
    D:-----------------------7--6-----6-----7------------------------------------|
    A:--------------------------------------------0--0-------0----0--------0-----|
    E:--------1--1-----1--------0--0-----0---------------------------------------|
    
    
    e:--5--7--8-----------7--5---------------------------------------------------|
    B:-----------5-----5--------6-----5-----6-----5--5-------------------6-------|
    G:--------------5--------------7-----7-----7-------------7--5--7--7-----7----|
    D:--------------------------0--------------------------7-------0-------------|
    A:--------0-----------------------------------0-----0------------------------|
    
  •             Am       Dm      Am       Dm       F       E      Am       
    I(e)  -|-5-7-8----7-5----------------------------------------------------------| 
    II(B) -|--------5----6----5--5----------6--1-0-1----0-------0-1----------------| 
    III(G)-|-------5-5------7--7------7-5-7--------------2-1---2-----2-2---2-------| 
    IV(D) -|---------------7-7------7------7-7-------3-------2------2-2-2-2-2------| 
    V(A)  -|-----0-------5---------7-7----5---------3-3-----2-2---0------0---------| 
    VI(E) -|---------------------5-----------------1-------0-----------------------|
                Am       Dm      Am       Dm       F       E       Am     
    I(e)  -|-5-7-8----7-5----------------------------------------------------------| 
    II(B) -|-----0--5----6----5--5----------6--1-0-1----0-------1-0----------------| 
    III(G)-|-----0-5-5------7--7------7-5-7--------------2-1-------2--2-2---2------| 
    IV(D) -|-----7---------7-7------7------7-7-------3-------2-------2-2-2-2-2-----| 
    V(A)  -|-----0-------5---------7-7----5---------3-3-----2-2----0------0--------| 
    VI(E) -|---------------------5-----------------1-------0-----------------------|
                 Dm    Am        Dm       Am     Dm      F C DmE      E 
    I(e)  -|-------0-1--0-----------1-------0-------0-1--1-3-5-4---5--0-------------| 
    II(B) -|-0-1-3------1-----3-1-3---1-0-1---0-1-3------1-5-6---5------------------| 
    III(G)-|------2-2-2-2---2------2-2-------2-----2-2-2-2------4-4-4---------------| 
    IV(D) -|-----0------2--2-2----0--------2------0------3---------------2----------| 
    V(A)  -|------------0-----------------0-----------------------------2-2---------| 
    
  •           *1 Am           Dm                  Am
    eb|-5--7-|-8--------7--5-|-1-----------0-----|-0-----------------|
    Bb|------|-----5---------|-------3--------3--|-------------3--1--|
    Gb|------|---5---5-------|----2-----2--------|-------2-----------|
    Db|------|---------------|-0-----------------|----2-----2--------|
    Ab|------|-0-------------|-------------------|-0-----------------|
    Eb|------|---------------|-------------------|-------------------|
    
    
      Dm                  F                   E                   Am
    1|-------1-----------|-------------------|-------------------|-------------------|
     |-3-----------1--0--|-1-----------0-----|----------------0--|-1-----------------|
     |----2-----2--------|----------------2--|-1-----------2-----|-------2-----2-----|
     |-0-----------------|-------3-----------|-------2-----------|----2-----2-----2--|
     |-------------------|----3-----3--------|----2-----2--------|-0-----------------|
    6|-------------------|-1-----------------|-0-----------------|-------------------|
    
    
      Am                     Am              Dm                 Am
    1|--------------||-5--7-|-8--------7--5-|-1----------0-----|--0------------------|
    
  • OTOÑO MEDIEVAL
                Rata Blanca (Afinación Caída)
    
      Guitarra 2
    e|-5-7-8-------7-5-1-------0---0---------------1---------|
    B|---------5-----------3-----3-----2---3-1-3-------1-0-1-|
    G|-------5---5-------2---2-------------------2---2-------|
    D|-----------------0-------------2---2-----0-------------|
    A|-----------------------------0-------------------------|
    E|-----0-----------------------------------------------1-|
    
      Guitarra 2
    e|-----------------------------------------|
    B|-------0-----------0-1-------------------|
    G|---3-----2-1-----2-------2---2-------2---|
    D|---------------2-------2---2---2---2---2-|
    A|-3---3-------2---2---0-----------0-------|
    E|-----------0-----------------------------|
    
      Guitarra 2
    e|-5-7-8-------7-5-1-------0---0---------------1---------|
    B|---------5-----------3-----3-----2---3-1-3-------1-0-1-|
    G|-------5---5-------2---2-------------------2---2-------|
    D|-----------------0-------------2---2-----0-------------|
    A|-----------------------------0------
  • +
    ¡Colabora con nosotros!
    Envíanos tu versión de esta canción

Letra de Otoño medieval



FIN
Esta es la más difícil que he sacado,
y tambien va por ti MAYRA




[Otoño medieval chords][Otoño medieval cifra]
© LaCuerda.net · aviso legal · privacidad · es · en · pt · contacto