Acordes de Guitarra » R »Rata Blanca » Lluvia púrpura (Tab)

Lluvia púrpura
Rata Blanca

Letras, Acordes y Tabs para Guitarra, Bajo y Ukulele

  • Intro
    							      x2
    e|-------------------------------------------------------------|
    B|-------------------------------------------------------------|
    G|------3/5--5--3/5--5--3/5--3--------------3/5--5--3/5--------|
    D|-3/5--3/5--5--3/5--5--3/5--3--5--3---3/5--3/5--5--3/5--3--5--|
    A|-3/5--1/3--3--1/3--3--1/3--1--5--3---3/5--1/3--3--1/3--3--5--|
    E|-1/3--------------------------3--1---1/3---------------1--3--|
    
    	   x7
    e|----------|--------------------|
    B|----------|--------------------|
    G|----------|---3p0--------------|
    D|-3/5-x--5-|-------3p0----------|
    A|-3/5-x--5-|-----------3-1------|
    E|-1/3-x--3-|---------------3-1--|
    
    ========================================================================
    
    e|------------------------------|--------------|
    B|------------------------------|--------------|
    G|------------------------------|-3/5-x--5-----|
    D|-3/5-x--5--3/5-x--5--3/5-x--5-|-3/5-x--5-----|
    A|-3/5-x--5--3/5-x--5--3/5-x--5-|-1/3-x--3-----|
    E|-1/3-x--3--1/3-x--3--1/3
  • +
    ¡Colabora con nosotros!
    Envíanos tu versión de esta canción






[Lluvia púrpura chords][Lluvia púrpura cifra]
© LaCuerda.net · aviso legal · privacidad · es · en · pt · contacto
DINAMICO