Acordes de Guitarra » R »Rata Blanca » La llave de la puerta secreta (Tab)

La llave de la puerta secreta
Rata Blanca

Letras, Acordes y Tabs para Guitarra, Bajo y Ukulele

  • Dm - A/C# - Dm X2 -
    E/G# - Am - G/B - C - D#dim - F#dim -
    Am - C - D#dim - F#dim -
    E x 4
    Intro 2:
    Am (SI DO ) - Dm (FA MI) - Am (MI SOL#) - Am -
    G - F - (E X2)
    En el (E X2) hace Walter:
    (SOL#-MI-LA-MI-SI-MI-SOL#)(el MI es cuerda al aire 6)
    
    *Se repite Intro 2
    
    Intro 3:
    Am X3 - C - G - X4
    
    
    Am
    Escondida en algún bosque
        G               Am X3 - C - G
    Una puerta encontrarás
    
  • e|--16p12------12-16p12--14p11------11-14p11--12p9---9-12p9---16p12------12-16p12-
    b|-------14--14---------------13--13--------------9-9--------------14--14---------
    g|---------13-------------------14-----------------9-----------------13-----------
    D|--------------------------------------------------------------------------------
    A|--------------------------------------------------------------------------------
    E|--------------------------------------------------------------------------------
    
    e|-12p9---9-12p9--11p7---7-11p7--9p6---6-9p6--7p4---4-7p4-
    b|-----9-9------------9-9-----------8-8----------4-4------
    g|------9--------------8-------------9------------4-------
    D|--------------------------------------------------------
    A|--------------------------------------------------------
    E|--------------------------------------------------------
    
    e|--7p4---4-7p4--10p7----7-10p7--11p7---7-11p7--16p11------11-16p11-
    b|-----6-6-----------9--9------------9-9-------------12--12---------
    g|------7-------------10--------------8----------------13-----------
    D|------------------------------------------------------------------
    A|------------------------------------------------------------------
    E|------------------------------------------------------------------
    
  • |--------------|
    |Para todos los|
    |amantes y     |
    |seguidores de |
    |Walter        |
    |--------------|
    Afinación:
    1°-D#  4°C#
    2°-A#  5°G#
    3°-F#  6°D#
    
    
    Primer solo:
    
    17----------------17----15-------------12-15-12-13-10----------10-13-10-17
    ---18----------18----18----17-14----14----------------10----10-----------
    ------19----19-------------------15----------------------10--------------
    ---------19--------------------------------------------------------------
    -------------------------------------------------------------------------
    -------------------------------------------------------------------------
    
  • bueno, como lo prometi aca esta el solo, el intro, y el final
    
    intro:
    
    17-13---------13-17-13--15-12----------12-15-12
    -----15----15-----------------14----14---------
    --------14-----------------------15------------
    -----------------------------------------------
    -----------------------------------------------
    -----------------------------------------------
    
    -13-10----------10-13-10-17-13----------13-17-13-
    -------10----10----------------15----15----------
    ----------10----------------------14-------------
    -------------------------------------------------
    -------------------------------------------------
    -------------------------------------------------
    -------------------------------------------------
    
    -13-10----------10-13-10-12-8---------8-12-8-
    -------10----10---------------10---10--------
    ----------10---------------------9-----------
    ---------------------------------------------
    ---------------------------------------------
    ---------------------------------------------
    
    -10-7-------
  • bueno aqui les va el tab que saque para bajo de 5 cuerdas
    NOTA: si tienen bajo de 4 cuerdas, cambien todos los "4"
    de la cuerda "B" x el "6" en la cuerda "A".
    Les señalo con un (**) donde deban hacer ese cambio.
    
    Intro:
    
    G|------------------------------------------
    D|------------------0-3------0-3------------
    A|4--3--4-------1-2--------2-------6----6--
    E|----------3-4----------4------------------
    B|------------------------------------------
    
    
    Coro:
    
    G|----------------------------------------------------
    D|----------------------------------------------------
    A|-------------------------4444444444-777777-666666---
    E|-4444444-6666666-777777-----------------------------
    B|----------------------------------------------------
    
    G|-------------------------------------------------------
    D|-------------------------------------------------------
    A|-------------------------------------------------------
    E|-3333333333---3-444444444-22222222-0000000-------------
    B|------------4----------------------
  • +
    ¡Colabora con nosotros!
    Envíanos tu versión de esta canción

Letra de La llave de la puerta secreta
En el (E X2) hace Walter:
*Se repite Intro 2
Escondida en algún bosque
Una puerta encontrarás
Su poder es el camino
que nos puede transformar
Oh Ohh Oh Ohh
debo buscar hasta encontrarla
Oh Ohh Oh Ohh
Ella será la salvación
Intro2
Poderosas religiones
manipulan nuestra fé
Los infames que gobiernan
pisarán la humanidad
Oh Ohh Oh Ohh
debes buscar hasta encontrarla
Oh Ohh Oh Ohh
Deben luchar Hijos Del SOl.
Solos:
Sobre la base de la Intro 1 La última nota "E" Dura un tiempo X2
Teclados:
Correrás entre la niebla
y quizá te perderás
pero sabes que tu fuego
vencerá la oscuridad
Oh Ohh Oh Ohh
debes buscar hasta encontrarla
Oh Ohh Oh Ohh
Deben luchar Hijos Del SOl.
Final:
Y ahora Similar que la intro 1:




[La llave de la puerta secreta chords][La llave de la puerta secreta cifra]
© LaCuerda.net · aviso legal · privacidad · es · en · pt · contacto