Acordes de Guitarra » R »Rata Blanca » La boca del lobo (Tab)

La boca del lobo
Rata Blanca

Letras, Acordes y Tabs para Guitarra, Bajo y Ukulele

  •   G                                 G
    |---------------------------------|---------------------------------|
    |---------------------------------|---------------------------------|
    |---------------------------------|---------------------------------|
    |---------------------------------|---------------------------------|
    |----3--5-6--5--3-5--3----3-------|----3--5-6--5--3-5--3----3-------|
    |-3---------------------6----6--5-|-3---------------------6----6--5-|
    
      D#              C                 D
    |---------------------------------|---------------------------------|
    |---------------------------------|---------------------------------|
    |---------------------------------|---------------------------------|
    |-------3-5--3--------------------|---------------------------------|
    |----6----------6----6-5--3-------|-----------------5--3------------|
    |----------------------------6--5-|----2--3-5--6--5-------6-5--3--2-|
    
      G                                 G                       F
    |---------------------------------|---------------------------------|
    |---------------------------------|---------------------------------|
    |---------------------------------|---------------------------------|
    
  • +
    ¡Colabora con nosotros!
    Envíanos tu versión de esta canción

Letra de La boca del lobo
= = Verso 1 = =
Es su color la oscuridad, vive entre sombras
Ver atras es recordar nubes sin forma Y su am
mor mas que su herida
Le enseño a luchar por esta
vida
= = Variación del Intro - Riff 1 = =
= = Verso 2 = =
Yo le conte alguna vez del arco iris
el me sonrio se que penso que era imposible Y aunque
hoy llora su alma
en su rostro hay una espe-
ranza
= = Se repite la variación del Intro - Riff 1 = =
resto...)
= = Verso 3 = =
Su tacto hoy endurecio con su pasado
Su cuerpo igual que su baston viejo y gastado Y ele-
vo la vista al cielo,
por sentir el sol entre sus
dedos Asi vivio
= = Outro = =
Con lo imposible
Fin




[La boca del lobo chords][La boca del lobo cifra]
© LaCuerda.net · aviso legal · privacidad · es · en · pt · contacto
DINAMICO