Acordes de Guitarra » R »Rata Blanca » Gente del Sur (Tab)

Gente del Sur
Rata Blanca

Letras, Acordes y Tabs para Guitarra, Bajo y Ukulele

  •     F#                              E               F#        E  F#
    e:--2-2-2-2-2-2-2-2-2-2-2-2-2-2-2-2-0-0-0-0-0-0-0-0-2-2-2-2-2-0--2-2-2-2-2-2-|
    B:--4-4-4-4-4-4-4-4-5-5-5-5-5-5-5-5-2-2-2-2-2-2-2-2-4-4-4-4-4-2--5-5-5-5-5-5-|
    G:---------------------------------------------------------------------------|
    D:---------------------------------------------------------------------------|
    A:---------------------------------------------------------------------------|
    E:---------------------------------------------------------------------------|
    
    
                                                           
    
                          A        E         F#
    e:2-2-2-2-2-2-2-2-2-2-5--------0---------2----------4-|
    B:5-5-4-4-4-4-4-4-4-4----4-5-7----4-5-7--4----4-2-0---|
    G:----------------------------------------------------|   
    D:----------------------------------------------------|   
    A:----------------------------------------------------|
    E:----------------------------------------------------|
    
    
    
  •     F#m                 D/F#
    e:----------------------------------------
    B:--2---------2---------3---------3-------
    G:--2---------2---------2---------2-------
    D:--4---------4---------4---------4-------
    A:----------------------------------------
    E:--2-2-2-2---2-2-2-2---2-2-2-2---2-2-2-2-
    
       E                   F#m         E
    ----------------------------------------
    ---0---------0---------2--------2--0----
    ---1---------1---------2--------2--1----
    ---2---------2---------4--------4--2----
    ----------------------------------------
    ---0-0-0-0---0-0-0-0---2-2-2-2--2--0----
    
      D/F#                F#m
    ----------------------------------------
    --3---------3---------2---------2-------
    --2---------2---------2---------2-------
    
  •  F#  D   E   F E F A    Arreglo 1 E Arreglo 2 F# (en 6ta cuerda) arreglo 3    * 2
    
    
    ARREGLO -1-
    
     D|---------2----------|
     A|----3_4-------------|
     E|--------------------|
    
    
    
    ARREGLO -2-
    
     D|--------------------|
     A|---------2----------|
     E|----3_4-------------|
    
    
    ARREGLO -3-
    
    
  • La Afinacion Del Bajo Es Normal. (E A D G) 
    
      Q=105
     4/4
      Gtr I
      W          E E E E E E E E   E E E E E E E E   E E E E E E E E
    |----------|-----------------|-----------------|------------------|
    |----------|-4-4-4-4-4-4-4-4-|-4-4-4-4-4-4-4-4-|-2-2-2-2-2-2-2-2--|
    |----------|-----------------|-----------------|------------------|
    |----------|-----------------|-----------------|------------------|
    
    
      E E E E E E +Q     E E E E E E E E   E E E E E E E E   Q  S S S S Q  S S S S
    |------------------|-----------------|-----------------|----6-7-9--------------|
    |-4-4-4-4-4-2-(2)--|-4-4-4-4-4-4-4-4-|-4-4-4-4-4-4-4-4-|-7-------------6-7-9---|
    |------------------|-----------------|-----------------|------------7----------|
    |------------------|-----------------|-----------------|-----------------------|
    
    
      H    E E E E   E E E E E E E E   E E E E E E E E   E E E E E E E E
    |------6-------|-----------------|-----------------|-----------------|
    |--------9-7-6-|-4-4-4-4-4-4-
  • Guillermo Sanchez (BAJO)
    
    
    
                                                                                
    E||------------------|--------------------------|--------------------------|
    B||------------------|--------------------------|--------------------------|
    G||------------------|--------------------------|--------------------------|
    D||------------------|--------------------------|--------------------------|
    A||------------------|--------------------------|--------------------------|
    E||------------------|--2--2--2--2--2--2--2--2--|--2--2--2--2--2--2--2--2--|
    
    
                                                                                   
    --------------------------|------------------------|--------------------------|
    --------------------------|------------------------|--------------------------|
    --------------------------|------------------------|--------------------------|
    --------------------------|------------------------|--------------------------|
    -------------
  • +
    ¡Colabora con nosotros!
    Envíanos tu versión de esta canción

Letra de Gente del Sur
e:--2-2-2-2-2-2-2-2-2-2-2-2-2-2-2-2-0-0-0-0-0-0-0-0-2-2-2-2-2-0--2-2-2-2-2-2-|

La soledad , no es mal camino
en este mundo, todo esta mal
La sociedad , sigue mostrando
que es solamente, parte del mal
puedo contarte, tristes historias
que en estas tierras viví
puedo sentir , hondas heridas
que mortifican mi ser por ver tanta injusticia
madres de hoy, lloran sus hijos
en una plaza de la ciudad

y el gran imperio, bebió la sangre
del que pedia , su libertad
No se muy bien , cual fue la gloria

en esta guerra del sur
hoy puedo ver, miles de cruces
en estas islas que Dios Nos dio a todos los hombres
En soledad hoy los recuerdo
gente valiente del sur
y la verdad , solo es divina




[Gente del Sur chords][Gente del Sur cifra]
© LaCuerda.net · aviso legal · privacidad · es · en · pt · contacto