Tablatura para Guitarra de Rata Blanca: El reino olvidado
Conexión · Inscripción
Letras y Acordes
Pantalla Completa
Imprimir
Versión Texto
Añadir Favorito
Otras Versiones

Mostrar Diagramas
Desfile Automático
Manipular Acordes
Formato del Texto


El reino olvidado(TAB)

Rata Blanca

calidad:
rata0872
AUTOR: Walter Giardino
ALBUM: El Reino Olvidado (2008)
Enviado por Genaro
no esta perfecto, tiene un par de errores creo
pero les va a servir mucho.suerte
esta medio apretujado porque no entrabaXD

ss: hacer vibratto


solo


---------------------------------------------------
---------------------------------------------------
--------4-------------4----------------------------
----4-6-----6-----4-6---6----6ss-4-------4-6ss-----
--6-------------6------------------6-4-6-----------
---------------------------------------------------

-------------------------------------------------------
----------------------------7b-7-4---------------------
----4-6--6b-6--4-6-6br-4ss---------6-4---4-6b-6b-6b-6b-
--6------------------------------------6---------------
-------------------------------------------------------
-------------------------------------------------------

--------------------------------14----------16----------14-
----12-14--14brp12------14brp12-----14brp12-----14brp12----
-13----------------13--------------------------------------
-----------------------------------------------------------
-----------------------------------------------------------
-----------------------------------------------------------

--------16-------16-19-16ss---19-16-21b--21-19-16-------16-19-16-
-14brp12-----16-19---------------------------------16-19---------
-----------------------------------------------------------------
-----------------------------------------------------------------
-----------------------------------------------------------------
-----------------------------------------------------------------

---------------------------------------------------
-19b---19-16---------------------------------------
-------------18-16-----18b-16----------------------
-------------------18---------18---18-16-----------
-----------------------------------------18--------
---------------------------------------------------

-/12-----/11------/9------/7---------------------
-----14------12------11------9-------------------
-------------------------------------------------
-------------------------------------------------
-------------------------------------------------
-------------------------------------------------

-----------------------------------
-------------------7---------------
----4-6-6brp4-6--4----6brp4-6-4----
--6-----------------------------6--
-----------------------------------
-----------------------------------

-----------11-12-14-12-14-16-14-16-18-16-18-19-16-18-19-16-21bb-
----11-12-14----------------------------------------------------
12-14-----------------------------------------------------------
----------------------------------------------------------------
----------------------------------------------------------------
----------------------------------------------------------------
Este fichero es trabajo propio de su transcriptor y representa su interpretación personal de la canción. El material contenido en esta página es
para exclusivo uso privado, por lo que se prohibe su reproducción o retransmisión, así como su uso para fines comerciales.

© LaCuerda.net · Aviso Legal · Privacidad