Acordes de Guitarra » R »Rata Blanca » El reino olvidado (Tab)

El reino olvidado
Rata Blanca

Letras, Notas, Punteos, Tablaturas y Acordes de Guitarra (Tabs & Chords)

  • Tablatura
    Riff A
    
     E |-11----11----11----11-----|12----12----12----12-----|
     B |---9-9---9-9---9-9---9-9--|--9-9---9-9---9-9---9-9--|
     G |--------------------------|-------------------------|
     D |--------------------------|-------------------------|
     A |--------------------------|-------------------------|
     E |--------------------------|-------------------------|
    
     E |-11----11----11----11----11----11-----|9-----9-----|
     B |---7-7---7-7---7-7---7-7---7-7---7-7--|-7-7---7-7--|
     G |--------------------------------------|------------| X4
     D |--------------------------------------|------------|
     A |--------------------------------------|------------|
     E |--------------------------------------|------------|
    
    Cuando comienza la tercera vuelta del
    Riff A se escucha otra guitarra haciendo lo siguente…
    
    Riff B
    
  • Tablatura
    G#5                                  Riff 3
       Hoy que los hombres perdidos están
    G#5                             Riff 3
       En los dominios de la oscuridad
    E5          D#5     C#5         Riff 4
      Desde la eternidad,  ellos regresaran
    E5-D#5        C#5            B5       C#5    D#5
       Los viejos reyes vendrán con la tempestad.
    
    
             Riff 1
    La oscuridad, sabes que esta, desolando la tierra y el mar
               Riff 1
    Tiempos sin paz, odio y dolor, necesito poder despertar
           Riff 2
    Tu corazón, te llevara, hacia el reino olvidado que esta
            F#5*-B5-F#5
    Solo dentro  de ti.
    
     e|----------------------------|----------------------------|
    
  • Tablatura
    no esta perfecto, tiene un par de errores creo
    pero les va a servir mucho.suerte
    esta medio apretujado porque no entrabaXD
    
    ss: hacer vibratto
    
    
    solo
    
    
    ---------------------------------------------------
    ---------------------------------------------------
    --------4-------------4----------------------------
    ----4-6-----6-----4-6---6----6ss-4-------4-6ss-----
    --6-------------6------------------6-4-6-----------
    ---------------------------------------------------
    
    -------------------------------------------------------
    ----------------------------7b-7-4---------------------
    ----4-6--6b-6--4-6-6br-4ss---------6-4---4-6b-6b-6b-6b-
    --6------------------------------------6---------------
    -------------------------------------------------------
    -------------------------------------------------------
    
    --------------------------------14----------16----------14-
    ----12-14--14brp12------14brp12-----14brp12-----14brp12----
    -13----------------13--------------------------------------
    ------------------
  • +
    ¡Colabora con nosotros!
    Envíanos tu versión de esta canción

Letra de El reino olvidado
Hoy que los hombres perdidos están
En los dominios de la oscuridad
Desde la eternidad, ellos regresaran
Los viejos reyes vendrán con la tempestad.
Riff 1
La oscuridad, sabes que esta, desolando la tierra y el mar
Riff 1
Tiempos sin paz, odio y dolor, necesito poder despertar
Riff 2
Tu corazón, te llevara, hacia el reino olvidado que esta
Puedes ser rico , mendigo, ladron
Duelen las yagas en tu corazón
Volvamos a empezar y el reino lograra
Salvar la tierra y a toda la humanidad.
Riff 1
La oscuridad, sabes que esta, desolando la tierra y el mar
Riff 1
Tiempos sin paz, odio y dolor, necesito poder despertar
Riff 2
Tu corazón, te llevara, hacia el reino olvidado que esta
(como en la estrofa)
Riff 1
La oscuridad, sabes que esta, desolando la tierra y el mar
Riff 1
Tiempos sin paz, odio y dolor, necesito poder despertar
Riff 2
Tu corazón, te llevara, hacia el reino olvidado que esta
lejos de ti.
Riff 1 x2
Riff 2 F#5*-B5-F#5
Riff 3
Riff 4
A|-4-6-7-6-4-2--|
B|-7-|
G|-6-|
D|-4-|

Videos de El reino olvidado
[ver más videos]

[ver todas las canciones]


© LaCuerda.net · Aviso Legal · Privacidad