Tablatura para Guitarra de Ramon Ayala Y Sus Bravos Del Norte: Mi Tesoro
Conexión · Inscripción
Letras y Acordes
Pantalla Completa
Imprimir
Versión Texto
Añadir Favorito
Otras Versiones

Mostrar Diagramas
Desfile Automático
Manipular Acordes
Formato del Texto


Mi Tesoro(TAB)

Ramon Ayala Y Sus Bravos Del Norte

calidad:
rays0082
AUTOR: Pedro Reyna
ALBUM: Mi Piquito de Oro
Enviado por vege
Ok hice este acompañamiento para intercalarlo con la transcripcion de Edoardo Espinoza
(andyae@mail.utexas.edu). Se escuche muy bien las dos juntas.


Desde 'Nada me importa...'   

e|------------|-------------|
b|------------|-------------|
g|-9--7-6-----|-9---7-6-----|
d|--------9-7-|---------9-7-|

'...de todo me olvido...'

e|-----------|
b|-----------|
g|-7---7-6---|
d|---------9-|


'...cuando no miro...'

e|------------|
b|------------| X(2)
g|-7-7-7--6---|
d|----------9-|


'...es un martirio...'

e|-----------|
b|-----------|
g|-9-7-6-----|
d|-------9-7-|



 Eso es todo, en el coro por mas que le busque no le encontre.
 Cualquier duda y/o comentario no duden en mandarlo a:
 vege@atame.org
Este fichero es trabajo propio de su transcriptor y representa su interpretación personal de la canción. El material contenido en esta página es
para exclusivo uso privado, por lo que se prohibe su reproducción o retransmisión, así como su uso para fines comerciales.

© LaCuerda.net · Aviso Legal · Privacidad