Acordes de Guitarra » R »Raices » Cayo la lluvia (Tab)

Cayo la lluvia
Raices

Letras, Acordes y Tabs para Guitarra, Bajo y Ukulele

  • Dm            Gm
    Hoy m siento solo
    D                          F     A
    porque no he podido conquistarte
    Dm                    Gm
    siempre que quiero hablarte
    C                               F   A
    de lo que siento por ti me lo ignora
    Dm                      Gm
    y me siento triste al saber
            C         F          A
    que tu jamas me corresponderas
    coro
    Dm
    entonces que caiga la lluvia
                     Gm
    como lagrimas de mi corazon
        C
    y hare que sople el viento
               F                   A
    
  • REm SOLm DO FA LA X2
    
    REm    REm       SOLm
    Hoy... me siento solo
    DO                  DO        FA   LA
    Porque no he podido    conquistarte
    REm     REm          SOLm
    siempre que quiero hablarte
    DO                   DO           FA  LA
    de lo q siento por ti    me lo  ignoras
    REm                REm    SOLm
    y me siento triste al saber
    DO          DO      FA       LA
    que tu jamas     me corresponderas
    
    CORO
    REm                          REm                 SOLm
    Entonces que caiga la lluvia como lagrimas de mi corazon
    DO               DO                FA              LA
    y hare que sople el viento como suspiro de esta cancion
    
  • E/-----------------------------------------------------------------/
    
    
    e/---------------------------------------8-565---------------------/
    b/-5/6-6-5-5-------------------5-5-6-8-88------8-10-8-6-8-6-5------/
    g/-----------7-77-555----------------------------------------------/
    d/-------------------8-7-8-7-5-------------------------------------/
    a/-----------------------------------------------------------------/
    E/-----------------------------------------------------------------/
    
    
    REm               SOLm
    Hoy... me siento solo
    DO                     FA     LA
    Porque no he podido conquistarte
    REm               SOLm
    siempre que quiero hablarte
    DO                       FA     LA
    de lo q siento por ti me ignoras
    REm                   SOLm
    
  •      Dm                        Gm
    e|----------------------------------------------------------|
    B|---5h6-6-5-5/6/3-3--3-3--1-1-1h3--------------------------|
    G|---------------------------------3-2--3-2/3/0-0-----------|
    D|----------------------------------------------------------|
    A|----------------------------------------------------------|
    E|----------------------------------------------------------|
         C                  F            A7
    e|------------------8-6-6-5/6/5-5--5-6-5--------------------|
    B|---5-5-6-6/8--8-8-----------------------------------------|
    G|----------------------------------------------------------|
    D|----------------------------------------------------------|
    A|----------------------------------------------------------|
    E|----------------------------------------------------------|
         Dm                        Gm
    e|----------------------------------------------------------|
    B|---5h6-6-5-5/6/3-3--3-3--1-1-1h3--------------------------|
    G|---------------------------------3-2--3-2/3/0-0-----------|
    D|----------------------------------------------------------|
    A|----------------------------------------------------------|
    
  • +
    ¡Colabora con nosotros!
    Envíanos tu versión de esta canción

Letra de Cayo la lluvia
Hoy... me siento solo
Porque no he podido conquistarte
siempre que quiero hablarte
de lo q siento por ti me lo ignoras
y me siento triste al saber
que tu jamas me corresponderas
Entonces que caiga la lluvia como lagrimas de mi corazon
y hare que sople el viento como suspiro de esta cancion
mañana sera otro dia cuando salga el sol
quizas pueda llegar a tu corazon... en esta cancion
Me muero, me entierro y me quemo
me muerdo los labios saber que ya tu no
me quieres y que jamas
me corresponderas...no no no.
otra ves amanecio nublado bajo el sol
otra ves CORO




[Cayo la lluvia chords][Cayo la lluvia cifra]
© LaCuerda.net · aviso legal · privacidad · es · en · pt · contacto