Acordes de Guitarra » R »Ragazzas » Twiggy (Tab)

Twiggy
Ragazzas

Letras, Acordes y Tabs para Guitarra, Bajo y Ukulele

  •      C5    F5 C5       B5        F5
    e|-------------------------------------------|
    B|-------------------------------------------|
    G|---------10----------4-4-4-4-4-------------|  Verso
    D|---10----10-10-------4-4-4-4-4-3-3-3-3-3---|
    A|---10----8--10-------2-2-2-2-2-3-3-3-3-3---|
    E|---8--------8------------------1-1-1-1-1---|
    
    
        A5          C5                F5                E5
    e|------------------------------------------------------------|
    B|------------------------------------------------------------|
    G|--------------------------------10-10-10-10-10-10-9-9-9-9-9-| Estribillo
    D|--7-7-7-7-7-7-10-10-10-10-10-10-10-10-10-10-10-10-9-9-9-9-9-|
    A|--7-7-7-7-7-7-10-10-10-10-10-10-8--8--8--8--8--8--7-7-7-7-7-|
    E|--5-5-5-5-5-5-8--8--8--8--8--8------------------------------|
    
    
    
    INTRO:  C5   F5 C5 x2
    
  • +
    ¡Colabora con nosotros!
    Envíanos tu versión de esta canción

Letra de Twiggy
Twiggy, si vos no fuiste el camino
por qué ellas siguen tus pasooos?
Twiggy mi dulce niño con senos
cultura moda de espanto
Twiiiiggyyyy
Twiiiiggyyyy
Twiggy la libertad dónde ha ido?
No la reemplaza ese encanto artificial
Twiggy has generado un problema,
ellas se están maltratando
Twiiiiggyyyy
Twiiiiggyyyy
No lo intentes más, todo se puede mal interpretar aquí
No lo intentes más, todo se puede mal interpretar aquí
Twiggy las chicas están sufriendo
ellas no se están nutriendo con libertad
Twiggy mi dulce niño con senos
cultura moda de espanto
Twiiiiggyyyy
Twiiiiggyyyy
La moda no te hace feliz
La moda no te hace feliz
La moda no te hace feliz
Twiggy no te mueras así




[Twiggy chords][Twiggy cifra]
© LaCuerda.net · aviso legal · privacidad · es · en · pt · contacto
DINAMICO