Acordes de Guitarra » R »Rafael Godoy » Soy Colombiano (Tab)

Soy Colombiano
Rafael Godoy

  • Letra y Acordes
          E7          Am
    A mí deme un aguardiente,
           E7          Am
    un aguardiente de caña,
        F
    de las cañas de mis valles
                          E7
    y el anís de mis montañas.
    
           A7             Dm
    No me dé trago extranjero
                              Am
    que es caro y no sabe a bueno,
                      B7
    porque yo quiero siempre
                         E
    lo de mi tierra primero.
    
    Dm                      Am
    Ay! que orgullosos me siento
    
  • Tablatura
    --------------------------------------------------6-5-------------------------
    ------------------- --5-------5--6--8-6-5-6-8------------------------------
    -----------------6----7-6-7-------------------------------------------------
    ----7-8-7-6-7---------------------------------------------------------------
    ----------------------------------------------------------------------------
    ----------------------------------------------------------------------------
    
    
    ----5-6-----------5------------5-6-5---5-6-5--------------------------------
    ---------8-5-6-8---6---5-6-8--------8--------8-6-5-------------------------
    -----------------------7--------------------------------7----------------------
    -----------------------------------------------------------------------------
    ------------------------------------------------------------------------------
    -----------------------------------------------------------------------------(BIS)
                                   
          REm                                            LA7             REm                       
    A mí déme un aguardiente, un aguardiente de caña,
        SIb                                         MI7                LA
    de las cañas de mis valles y el anís de mis montañas.
                RE7           SOLm         DO7                           FA
    
  • +
    ¡Colabora con nosotros!
    Envíanos tu versión de esta canción

Letra de Soy Colombiano
A mí deme un aguardiente,
un aguardiente de caña,
de las cañas de mis valles
y el anís de mis montañas.
No me dé trago extranjero
que es caro y no sabe a bueno,
porque yo quiero siempre
lo de mi tierra primero.
Ay! que orgullosos me siento
de haber nacido en mi pueblo.
A mí cánteme un bambuco
de esos que llegan al alma,
cantos que ya me alegraban
cuando apenas decia mama.
Lo demas sera bonito
pero el corazón no salta,
como cuando a mi me cantan
una canción colombiana.
Ay! que orgullosos me siento
de haber nacido en mi patria.
Y para mi una muchacha
aperladita, morena,
o una rubia de ojos claros
de suave piel montañera.
Muchachas, musica y trago
de la sierra o de mi llano.
Ay! que orgulloso me siento
de ser un buen colombiano.
Ay! que orgulloso me siento
de ser un buen colombiano.

Video de Soy Colombiano
[]



© LaCuerda.net · aviso legal · privacidad · contacto