Acordes de Guitarra » R »Rafa Villalba » Chiquetere (Tab)

Chiquetere
Rafa Villalba

Letras, Acordes y Tabs para Guitarra, Bajo y Ukulele

  • E|--------------------------------------|
    B|--------------------------------------|
    G|--------------------------------------|
    D|--7--7--------------------------------|
    A|--------8-7-5-----5-5-5-----5-5-5-----|
    E|---------------7---------7------------|
    
    E|--------------------------------------||
    B|--------------------------------------||
    G|--------------------------------------|| X 4
    D|--7--7--------------------------------||
    A|--------8-7-5-----5-5-5---------------||
    E|---------------7---------7------------||
    
    
    gran sintetizador gran noventero
    
    
         RE5                         SOL5
    E|------------------------------------7---8---7h8h10-10----||
    
  • +
    ¡Colabora con nosotros!
    Envíanos tu versión de esta canción

Letra de Chiquetere
gran sintetizador gran noventero
en la 3era se le suma otro instrumento una octava mas abajo
RIFF moldeable a toda la cancion
igual le puse un poco pa que suene weno
LETRA
Cuando me estoy guisando la cena en la cocina,
o si me estoy fumando unos puritos en la playa.
Si me estoy haciendo frente al espejo la raya,
oigo que sale desde dentro de mí una musiquilla que suena tal que así.
Chiquetere teteteteteré.
Chiquetere teteteteterá.
Chiquetere teteteteteré.
Chiquetere sipiripapopaububa.
Chiquetere teteteteteré.
Chiquetere teteteteterá.
Chiquetere teteteteteré.
Chiquetere sipiripapopaububa.
Chiquetere teteteteteré.
Chiquetere teteteteterá.
Chiquetere teteteteteré.
Chiquetere sipiripapopaububa.
Chiquetere teteteteteré.
Chiquetere teteteteterá.
Chiquetere teteteteteré.
Chiquetere teteteteterá.
Cuando me estoy guisando la cena en la cocina,
o si me estoy fumando unos puritos en la playa.
Si me estoy haciendo frente al espejo la raya,
oigo que sale desde dentro de mí una musiquilla que suena tal que así.
Chiquetere teteteteteré.
Chiquetere teteteteterá.
Chiquetere teteteteteré.
Chiquetere sipiripapopaububa.
Chiquetere teteteteteré.
Chiquetere teteteteterá.
Chiquetere teteteteteré.
Chiquetere teteteteterá.
Chiquetere teteteteteré.
Chiquetere teteteteterá.
Chiquetere teteteteteré.
Chiquetere teteteteterá.
Chiquetere teteteteteré.
Chiquetere teteteteterá.
Chiquetere teteteteteré.
Chiquetere sipiripapopaububa.
Chiquetere teteteteteré.
Chiquetere teteteteterá.
ahi esta
pa' que la disfruten en familia y con amigos...

Video de Chiquetere
[]




[Chiquetere chords][Chiquetere cifra]
© LaCuerda.net · aviso legal · privacidad · es · en · pt · contacto