Acordes de Guitarra » Q »Querembas » Llorando se fue (Tab)

Llorando se fue
Querembas

Letras, Acordes y Tabs para Guitarra, Bajo y Ukulele

  • DE BRUNO M2M DISFRUTENLA Y AGUENTE EL ROCK ….ESTE COVER ESTA RE BUENO
    TONO G D A E
    pre intro:
    G-----------------------------
    D-----------------------------
    A-2------2------5------5------
    E---0000---0000---3333---3333-
    
    Intro:
    -------------------------------------------
    -------------------------------------------
    -------------------------------------------
    -------000--00-000-00-----333--33--333-33--
    
    verso:
    ---------------------------
    ---------------------------
    ---------------------------  x2
    -----00-00-0--33-33-3------       --333--(antes de coro)
    
    coro:
    ---------------------------------------------------------
    ---------------------------------------------------------
    ---------3333333----------333333---9--7--5----7-----77---
    -555555-----------555555---------------------------------
    
    -------------------------------------------------------------
    -------------------------------------------------------------
    ---------3333333----------333333---9--7--5-------------------
    -555555-----------
  • +
    ¡Colabora con nosotros!
    Envíanos tu versión de esta canción



Video de Llorando se fue
[]




[Llorando se fue chords][Llorando se fue cifra]
© LaCuerda.net · aviso legal · privacidad · es · en · pt · contacto