Acordes de Guitarra » P »Puerto Seguro » No me engañas (Tab)

No me engañas
Puerto Seguro

Letras, Acordes y Tabs para Guitarra, Bajo y Ukulele

  • E-----------------------/--------------/------------------------/
    A------7-----7--9--5--3-/---7----------/---7-----7--8--9--------/   
    D---7-----5-------------/------5--6--7-/------5-----------------/
    G-----------------------/--------------/------------------7--5--/
    B-----------------------/--------------/------------------------/
    e-----------------------/--------------/------------------------/
    
    
    Am                        E9-D9
    Me encontre con una bruja la cual me pidió,
    E-F-G-Am                      E9-D9
          la mano para adivinarme todo lo que soy,
    E-F-G-Am                     E9-D9 
          si cuantos años tengo, como estoy en el amor,
    E-F-G-Am                        E9-D9
          si la cintita roja la tendria que usar hoy.
    
    Puente:
    
    C5                    D9
    
  • A5            C5  D5
    Me cruzé con una bruja la cual me pidió,
    E-G-E   A5           C5  D5
         la mano para adivinarme todo lo ke soy,
    E-G-E   A5               C5 D5
         si cuántos años tengo como stoy en el amor,
    E-G-E
         si la cintita roja la tendría ke usar hoy,
    
    Puente:
    
    F5                 E5
    Tomo me es lícito + no todo conviene,
    F5                          E5 (4 veces)
    no kiero mezclar lo falso, con la verdad...
    
    Koro:
              A5   C5     D5         E5  C5
    //No me engañás,    no me engañás,
                A5           C5
    
  • Que pena!!! otra vez esta tocando con un bajo de 5 cuerdas!!! pero que le vamos a hacer
    si escuchan la cancion el bajo suena bien bacan!!!
    Ahi les va!!!Pero primero entra la Guitarra y percusiones
    
    
    :Intro:
    
    G] :------------:------------:---------------:-----------:
    D] :------------:------------:---------------:-----------:
    A] :------------:------------:---------------:-5--3------:
    E] :-5---2-3-0-2:-------0-2-3:5---2-3---0-1-2:-----------:
    B] :------------:3-1---------:---------------:-----------:
    
    :Estrofas:
    
    Me cruce con una bruja...
    G] :------------:------------:---------------:-------------:
    D] :------------:------------:---------------:-------------:
    A] :------------:------------:------------3-5:-------------:
    E] :-5----------:-------0-3-0:5--------------:--------0-3-0:
    B] :---------1-3:------------:---------------:-------------:
    
    Si cuantos años tengo...
    G] :------------:------------:---------------:
    D] :------------:------------:---------------:
    A] :---
  • +
    ¡Colabora con nosotros!
    Envíanos tu versión de esta canción

Letra de No me engañas
Me encontre con una bruja la cual me pidió,
la mano para adivinarme todo lo que soy,
si cuantos años tengo, como estoy en el amor,
si la cintita roja la tendria que usar hoy.
Todo me es licito mas todo no combniene,
no quiero mezclar lo falso con la verdad.
Estribillo:
No me engañas, no me engañas,
si tengo a cristo en mi vida
él me da seguridad.
(misma secuencia de notas que la estrofa uno)
Me cruce con un amigo atento lo escuche
habló como un astrologo de pisis era él
dejó un par de consejos para en el amor crecer
pero una con fución invadió todo su ser.
Estribillo.
(la base del solo de guitarra son las notas del estribillo)




[No me engañas chords][No me engañas cifra]
© LaCuerda.net · aviso legal · privacidad · es · en · pt · contacto
DINAMICO