Acordes de Guitarra » P »Psycolor » Esperanza de volverte a ver (Tab)

Esperanza de volverte a ver
Psycolor

Letras, Acordes y Tabs para Guitarra, Bajo y Ukulele

  • E--------------------------------
    A--------------------------------
    D--------0-------0-------0------0
    G------0-------0-------0------0--
    B----3-------3-------3------3----
    e--4-------4-------4------4------
    
    E--------------------------------
    A--------------------------------
    D-----0------0------0-------0----
    G----2------2------2-------2-----
    B---0------0------0-------0------
    e--2------2------2-------2-------
    
    E-----------------------
    A-----------------------
    D-----0---0---0---0-----
    G----0---0---0---0------
    B---6---6---6---6-------
    e--8---8---8---8--------
    
  • +
    ¡Colabora con nosotros!
    Envíanos tu versión de esta canción

Letra de Esperanza de volverte a ver
Descanso
Pensando en el día
Que al encontrarnos
Fluya la energía
Conexos
Son los pensamientos
Esperanzas unidas
Entre palabras
Volver a ver El brillo
De tus ojos
LabMa7/Mib
Que el tiempo hizo olvidar
Conexos
Son los pensamientos
Esperanzas unidas
Entre palabras
Volver a ver El brillo
De tus ojos
LabMa7/Mib
Que el tiempo hizo olvidar




[Esperanza de volverte a ver chords][Esperanza de volverte a ver cifra]
© LaCuerda.net · aviso legal · privacidad · es · en · pt · contacto
DINAMICO