Acordes de Guitarra » P »Priscila y sus Balas de Plata » Yo Viviré (Tab)

Yo Viviré
Priscila y sus Balas de Plata

Letras, Acordes y Tabs para Guitarra, Bajo y Ukulele

  • Este mes me pusieron muy norteño con sus peticiones, y pues aqui anda
     uno, complaciendo gente, y pues solo me queda decirles que la 
    disfruten!!!                    
                                YO VIVIRE 
                         Priscila y Sus Balas de Plata
    
    Transcrita por: Nestor Sadao Arechiga Cervantes
    
    La afinacion del bajo es normal (E A D G)
    Empezamos!!!
      
    Q=78
     4/4
      Gtr I
      W          W          W          H    H
    |----------|----------|----------|-1---------|
    |----------|----------|----------|-----------|
    |----------|----------|----------|------4----|
    |----------|----------|----------|-----------|
    
    
                                            Q=79
      H    H      H    H      H    Q.   E   E S S S S E E E S S E
    |-----------|-1---------|-------------|-1---4-4---8---------1--|
    |-4---------|-----------|-1----1------|-----------------2------|
    |------2----|------4----|-------------|-------------4----------|
    |-----------|-----------|-------------|-----------------
  • +
    ¡Colabora con nosotros!
    Envíanos tu versión de esta canción



Video de Yo Viviré
[]




[Yo Viviré chords][Yo Viviré cifra]
© LaCuerda.net · aviso legal · privacidad · es · en · pt · contacto