Acordes de Guitarra » P »Porter » Girl (Tab)

Girl
Porter

Letras, Acordes y Tabs para Guitarra, Bajo y Ukulele

  • Hola!!
    ESTA VERSION ES ACUSTICA ESPERO Y LES GUSTE
    ES SENCILLA ME APOLLE DE ESTE VIDEO
    http://www.youtube.com/watch?v=DZvjzGIsqjM
    PERO AQUÍ ESTAN TODA LA CANCION
    LOS ACORDES ESTANM COMPLETOS FACIL DE ENTENDER.
    
           RIFF: 1
    
    INTRO:
    e||-------------------------------------------------------
    B||-------------------------------------------------------
    G||-------------------------------------------------------
    D||-------3-----3-------3-----3-------3-----3------3-----3-
    A||----------4-------------4-------------4------------4----
    E||--2-2------------2-2----------2-2-----------2-2---------
    
    e||------------------------------------------------
    B||------------------------------------------------
    G||------------------------------------------------
    D||--6-6-6-6-6-6/8-8-8-8-8/6-6-6-6-6-6/8-8-8-8-8---  X2
    A||--4-4-4-4-4-4/6-6-6-6-6/4-4-4-4-4-4/6-6-6-6-6---
    E||------------------------------------------------
    
        RIFF: 2
    e||----------------------------
    B||----------------------------
    G||-----------
  • +
    ¡Colabora con nosotros!
    Envíanos tu versión de esta canción






[Girl chords][Girl cifra]
© LaCuerda.net · aviso legal · privacidad · es · en · pt · contacto