Acordes de Guitarra » P »Platero y Tú » Tenemos que entrar (Tab)

Tenemos que entrar
Platero y Tú

Letras, Acordes y Tabs para Guitarra, Bajo y Ukulele

  •   RE
    G|--10-9--12-10-9-9-10-|--10-9--12-10-9-10-9|
    D|---------------------|--------------------|
    A|---------------------|--------------------|
    
    RE P.M.                  Riff 1|
    Unas ventanas tapiadas,
    re P.M.                  |Riff 1
    cientos de bocas cerradas,
    SIb            DO            Riff 1|
    el rock se queda sin casa,
    SIb      DO                        FA DO RE   FA DO RE
    de nuevo la calma amarga a las gentes de bien, a la vez
          LA[SOL-LA] SIb            LA[SOL-LA] SIb      SIb7            DO
    en un camión, un bajo sin voz, una guitarra ida y un amplificador.
    
    FA      DO
    Derriba la puerta,
    SIb [-SIb5-SIb-SIb5-SIb]
    Es nuestro lugar
    
  •   RE5
    G|--10-9--12-10-9-9-10---10-9--12-10-9-10-9|
    D|-----------------------------------------|
    A|-----------------------------------------|      BAJO
    
      RE5
    G|--10-9--12-10-9-9-10---10-9--12-10-9-10-9|
    D|-----------------------------------------|
    A|--------------------------------------1-3|      BAJO
    
      RE5
    G|--10-9--12-10-9-9-10---10-9--12-10-9-10-9|
    D|-----------------------------------------|
    A|-5------------------------------------5/3|      BAJO
    
        SIb                   DO
    G|--10-9--12-10-9-9-10---10-9--12-10-9-10-9|
    D|---------------------------------------3-|      BAJO
    A|-1--------------------------------------3|      BAJO
    
    
  • +
    ¡Colabora con nosotros!
    Envíanos tu versión de esta canción

Letra de Tenemos que entrar
Unas ventanas tapiadas,
re P.M. |Riff 1
cientos de bocas cerradas,
el rock se queda sin casa,
de nuevo la calma amarga a las gentes de bien, a la vez
en un camión, un bajo sin voz, una guitarra ida y un amplificador.
Derriba la puerta,
Es nuestro lugar
tenemos que entrar
Patada la puerta
la música de nuevo vuelve a sonar una vez más.
Riff 1
Uniformes de colores
juntos contra una cultura
lejana del señor cura,
tu prepotencia así no se puede quedar, señor edil,
no has de olvidar, nos tienes detrás y hasta en tu propia casa nos podemos colar.
Estribillo
Riff 1 (pasa a ser Re Mayor)




[Tenemos que entrar chords][Tenemos que entrar cifra]
© LaCuerda.net · aviso legal · privacidad · es · en · pt · contacto
DINAMICO