Acordes de Guitarra » P »Platero y Tú » Lo que os merecéis (Tab)

Lo que os merecéis
Platero y Tú

  • Bueno hoy como estoy inspirao ma salio esta cancion de los platero,
    está mas o menos, falta algun punteillo de la 2ª guitarra, pero weno,
    esta pensao pa tocar con una solo... espero k os mole
    adrianmetal_84@hotmail.com
    
    Intro
    e|--------------------------------------------------|
    B|--------------------------------------------------|
    G|--------------------------------------------------|
    D|--------------------------------------------------|
    A|----------2---------------2----------------2------|
    E|-0--0-2-3---3-2--0--0-2-3---3-2---0--0-2-3---3-2--|
    
    e|---------------------|
    B|---------------------|
    G|---5555---777---9----|   x3
    D|---5555---777---9----|
    A|---3333---555---7----|
    E|---------------------|
    
    e|--------------------------------------|
    B|--------------------------------------|
    G|--9------7--------------5---7---9-----|
    D|--9------7------7-------5---7---9-----|
    A|--7------5------7-------3---5---7-----|
    E|----------------5---------------------|
            Mirar
  • +
    ¡Colabora con nosotros!
    Envíanos tu versión de esta canción






[Lo que os merecéis chords][Lo que os merecéis cifra]
© LaCuerda.net · aviso legal · privacidad · es · en · pt · contacto
DINAMICO