Acordes de Guitarra » P »Plastilina Mosh » Mr. P. Mosh (Tab)

Mr. P. Mosh
Plastilina Mosh

Letras, Acordes y Tabs para Guitarra, Bajo y Ukulele

  • VERSO
         Bm
         Q     Q    Q    Q       Q    Q    Q     Q       Q     Q    Q    Q
    G||-----------------------|-----------------------|-----------------------|
    D||-----------------------|-----------------------|-----------------------|
    A||-------------7----8----|--9----8----7----------|-------------7----8----|
    E||--7----10--------------|-----------------10----|--7----10--------------|
    
    
      Q    Q    Q     Q       Q     Q    Q    Q       Q    Q    Q     Q
    -----------------------|-----------------------|-----------------------|
    -----------------------|-----------------------|-----------------------|
    --9----8----7----------|-------------7----8----|--9----8----7----------|
    -----------------10----|--7----10--------------|-----------------10----|
    
    
                                                      Em
      Q     Q    Q    Q       Q    Q    Q     Q       Q     Q    Q    Q
    -----------------------|-----------------------|-----------------------|
    -----------------------|-----------------------|-----
  • +
    ¡Colabora con nosotros!
    Envíanos tu versión de esta canción



Video de Mr. P. Mosh
[]




[Mr. P. Mosh chords][Mr. P. Mosh cifra]
© LaCuerda.net · aviso legal · privacidad · es · en · pt · contacto