Acordes de Guitarra » P »El plan de la Mariposa » El Riesgo (Tab)
  • Letra y Acordes
    Intro: Bm - G - D - A
    
    Bm
                     G
    Me dijo todo bien
                         D
    Ya se va a pasar la sombra
          A
    Que cruce
                    Bm
    Que me anime a ver
    
    
    Que podía reflexionar
    Sobre lo que estaba haciendo
    Que no tape
    Que me deje ser
    
    
    Me dijo calma no es quietud
    
  • Tablatura
        Bm
    1.-----------------------------------------------------
    2.--15p12-----15p12-----15----15p12-----15p12-----15---
    3.--------14--------14--------------14--------14-------
    4.-----------------------------------------------------
    5.-----------------------------------------------------
    6.-----------------------------------------------------
    
        G
    1.-----------------------------------------------------
    2.--15p12-----15p12-----15----15p12-----15p12-----15---
    3.--------14--------14--------------14--------14-------
    4.-----------------------------------------------------
    5.-----------------------------------------------------
    6.-----------------------------------------------------
    
        D
    1.-----------------------------------------------------
    2.--15p12-----15p12-----15----15p12-----15p12-----15---
    3.--------14--------14--------------14--------14-------
    
  • +
    ¡Colabora con nosotros!
    Envíanos tu versión de esta canción

Letra de El Riesgo
Me dijo todo bien
Ya se va a pasar la sombra
Que cruce
Que me anime a ver
Que podía reflexionar
Sobre lo que estaba haciendo
Que no tape
Que me deje ser
Me dijo calma no es quietud
Y se echo a reír
Como cuando era chica
Acá se trata de sentir
Intuición y acción
El riesgo es optimismo, mandó
Para besar a la luz
Seducir a la sombra
(Seducir a la sombra)
Es tiempo de sanar
Esta miseria
(Sanar la miseria)
Nadé un mar de soledad
Y casi no salgo vivo
Toqué fondo
Para renacer
Y aunque te voy a extrañar
Vos andas siempre conmigo
Te llevo adentro
Para besar a la luz
Seducir a la sombra
(Seducir a la sombra)
Es tiempo de sanar
Esta miseria
(Sanar la miseria)
(Bis)



© LaCuerda.net · aviso legal · privacidad · contacto