Acordes de Guitarra » P »Piperrak » Gora Sartaguda (Tab)

Gora Sartaguda
Piperrak

Letras, Acordes y Tabs para Guitarra, Bajo y Ukulele

  • MI |-9---        DO#  |--11--
       |-7---             |--11--
       |-----             |--9---
    
    
    Intro: MI - SI - MI - SI - LA - MI - LA - MI (x2)
    
    Ahora entra el bajo...
    
    ahora,mientras toka el kazoo suena esto; MI - SI - DO# - LA - SI
    
    
    
    MI
    A orillas del ebro
            SI
    entre lodosa y pradejon
    DO#
    se esta preparando
           LA   SI
    
  • La intro de la canción es así
    
    |----------------------------|----------------------------|
    |----------------------------|----------------------------|
    |--7-7-7--------7-7-7--------|--------7--7-7-------7-7-7--|
    |--------7--7-7-------7--7-7-|--5-5-5--------5-5-5--------|
    
    |----------------------------|----------------------------|
    |----------------------------|----------------------------|
    |--7-7-7--------7-7-7--------|--------7--7-7-------7------|
    |--------7--7-7-------7--7-7-|--5-5-5--------5-5-5--------|
    
    En esta parte se queda el bajo solo y hace un rock 'n' roll así
    
    |------------------|------------------|-------------------|-------------|
    |------6-6-9-9-6-6-|------------------|-------------------|-------------|
    |--7-7-------------|------4-4-7-7-4-4-|------6-6-9-9-6-6--|---------7---|
    |------------------|--5-5-------------|--7-7--------------|--5-5-5------|
    
    Ahora empieza la caña y se repiten dos riffs, la parte solo instrumental va así
    
    1º: casi toda la canción, escuchando 
  • +
    ¡Colabora con nosotros!
    Envíanos tu versión de esta canción

Letra de Gora Sartaguda
Ahora entra el bajo...
ahora,mientras toka el kazoo suena esto; MI - SI - DO# - LA - SI
A orillas del ebro
entre lodosa y pradejon
se esta preparando
la revolucion
ciento veinte tios
preparados para armar (la gorda!!)
un nuevo vietnam
y kiero gritar...
Gora Sartaguda
Gora gora Sartaguda
Siempre extrema y dura
siempre radical
Bueno,el resto de la cancion no lo pongo porke ya lo he puesto
antes pero se ha borrao,esto empieza a ser una especie de
Dejavu o como se diga.
Dudas?sugerencias?sexo espacial?? contactarme a
omar_martinez2@hotmail.com




[Gora Sartaguda chords][Gora Sartaguda cifra]
© LaCuerda.net · aviso legal · privacidad · es · en · pt · contacto
DINAMICO