Acordes de Guitarra » P »Peteco Carabajal » Digo la telesita (Tab)

Digo la telesita
Peteco Carabajal

Letras, Acordes y Tabs para Guitarra, Bajo y Ukulele

  • Bm F#m Em Bm (Intro) (x2)
    Acompañado de punteo.
    
    
    G                                    A
    Telesita Huarmi Sumaj Mai Pitiay yana flor
                                         Em
    con carita de horizonte, de lluvia tu corazón
                                     F#m Bm
    con carita de horizonte, de lluvia tu corazón
    
    Bm F#m Em Bm (x2)(con punteo)
    
    G                                       A
    Cuentan que una bailarina, llamas en su corazón
                                         Em
    era incendiada madera, golpes de una quemazon,
                                      F#m Bm
    era incendiada madera, golpes de una quemazon.
    
    
  •        SIm-LA -MIm-SIm
           Sim-LAM-Mim-Fa#m-Sim
    
    SOL
    Telesita huarmi súmaj
                    LA 
    miapitiay iana flor
    
    con carita de horizonte
                     MIm
    de lluvia tu corazón
    
    con carita de horizonte
         FA#m        SIm
    de lluvia tu corazón
    
           SIm-LA -MIm-SIm
           Sim-LAM-Mim-Fa#m-Sim
    
    Cuentan de una bailarina
    
  • -------------------------------------------------------------------------------
    
        F#  Bm
    e-|-2---2-----------------------2h4p2--0--5--2---------------------------|-
    B-|-2---3-------3---2---0-------3------2--7--3---------------------------|-
    G-|-3---3-------4---4---2--2---------------------------------------------|-
    D-|-2---4------------------4---------------------------------------------|-
    A-|-4---2----------------------------------------------------------------|-
    E-|-2---X----------------------------------------------------------------|-
    
    e-|----------------------------------------------------------------------|-
    B-|--3---2---0-------3--2------------------------------------------------|-
    G-|--4---4---2--2----------3--4--------------------------------------------|-
    D-|-------------4----4--2------------------------------------------------|-
    A-|------------------------4--5--------------------------------------------|-
    E-|----------------------------------------------------------------------|-
    
    [Introducción]
            Bm F#m7 Em7 Bm
            Bm F#m7 E5-F#5 (F#7)*-Bm
    
  • Éste es mi humilde aporte, espero que les funcione. Saludos!
    
    Arreglo INTRO:
    
    E----------------------------------------------------------I
    A-----------------19--17--16--14--12------------12--14-----I
    D--16----19-17-16----------------------12--11--------------I
    G-----16---------------------------------------------------I
    
    INTRO:
    E---------------------------I------------------------------I
    A---------------9--7-----9--I------------------------------I
    D---------9--7--------7-----I--------9--7--------7--9------I
    G--7--6---------------------I--7--6--------7--6------------I
    
    Los acordes de la introducción son: Bm F#m7 Em7
    
    ESTROFAS:
        G     G     G     A    F#m   F#m   F#m    G
    E--3-3---3-3---3-3---5-5---2-2---2-2---2-2---3-3---3-2-0-2-3-2------I
    A--------------------------------------------------------------1-2--I
    D-------------------------------------------------------------------I
    G-------------------------------------------------------------------I
    
    Espero que les sirva!
  • +
    ¡Colabora con nosotros!
    Envíanos tu versión de esta canción

Letra de Digo la telesita
Acompañado de punteo.
Telesita Huarmi Sumaj Mai Pitiay yana flor
con carita de horizonte, de lluvia tu corazón
con carita de horizonte, de lluvia tu corazón
Cuentan que una bailarina, llamas en su corazón
era incendiada madera, golpes de una quemazon,
era incendiada madera, golpes de una quemazon.
Entonces traerán tu nombre,viste el patio de oropel
de la boca de tinaja, a coros ofrézcanme,
de la boca de tinaja, a coros ofrezcanme.
Telesita, Telesita, se baila tu tradición
son siete las chacareras regaditas con alcohol,
son siete las chacareras regaditas con alcohol.
En los hombres mal heridos, se inmoló tu condición
se le bailarán mensajes, de pena y de desazón,
se le bailaran mensajes, de pena y de desazon.
Magia de naturaleza, en tu instinto se encendió
en cuencos de loco fuego, tu cuerpito se cayó,
en cuencos de loco fuego, tu cuerpito se cayo.
Entonces traerán tu cuerpo, viste el patio de oropel
de la boca de tinaja, a coros ofrézcanme,
de la boca de tinaja, a coro ofrezcanme.
Telesita, Telesita, se baila tu tradición
son siete las chacareras regaditas con alcohol,
son siete las chacareras regaditas con alcohol.
Espero les sirva.




[Digo la telesita chords][Digo la telesita cifra]
© LaCuerda.net · aviso legal · privacidad · es · en · pt · contacto