Acordes de Guitarra » P »Perrozompopo » Fantasma Camaleon (Tab)

Fantasma Camaleon
Perrozompopo

Letras, Acordes y Tabs para Guitarra, Bajo y Ukulele

  • Intro: F#m    Amaj   C#maj
    
              F#m   F#m*   Amaj C#maj
    
    
    F# m             Amaj            C#maj
    Alguna gente dice que  mi cancion es sorda
    
    F#m                    Amaj               C#maj
    De pocos elementos de  falsa volunta
    
    F#m                           Amaj         C#maj
    Que engaño a los oidos  hablando al raz del suelo
    
    F#m                 Amaj             C#maj
    Que soy la pantonina de un circo familiar
    
    F#m                    Amaj       C#maj
    Alguna gente dice que invento la verdad
    
    
  •            F#m*   Amaj C#maj
               F#m*   Amaj C#maj
               F#m*   Amaj C#maj
               F#m*   Amaj C#maj
    
    Segunda Guitarra
        F# m             Amaj            C#maj
    e|--------------------------------------------------|
    B|--------------------------------------------------|
    G|------2---------2------4--------------------2-----|
    D|---4-----4-4-4-----6-----6----0---2---4---6---4---|
    A|--------------------------------------------------|
    E|--------------------------------------------------|
    
      F# m             Amaj            C#maj
    e|--------------------------------------------------|
    B|--------------------------------------------------|
    G|------2---------2------4--------------------2-----|
    D|---4-----4-4-4-----6-----6----0---2---4---6---4---|
    A|--------------------------------------------------|
    
  • +
    ¡Colabora con nosotros!
    Envíanos tu versión de esta canción

Letra de Fantasma Camaleon
Alguna gente dice que mi cancion es sorda
De pocos elementos de falsa volunta
Que engaño a los oidos hablando al raz del suelo
Que soy la pantonina de un circo familiar
Alguna gente dice que invento la verdad
Y que de boca en boca me vuelvo un huracán
Que soy un tipo enfermo mitómano y alcohol
Que soy de varios sexos que soy lo que no soy
Y si la envidia pudre tu enano corazón
Lo siento buen hermano perrozompopo soy
Y si la envidia pudre tu enano corazón
Lo siento buen hermano perrozompopo soy
No vas a derrotarme fantasma camalion
Yo siempre tengo un angel un sable y esta voz
Un escudo violeta y una buena intencion
No vas a derrotarme fantasma camalion
Hay gente que se empeña en querernos opacar
Sacándote las tripas del alma y del amor
Cerrando los caminos que tanto cuesta hallar
Escupiendo gusanos cargados de infección
Y aunque parezca broma se acercan para darte
Un beso envenenado que judas les dejo
Es gente que no puede lograr lo que soñó
Un beso en otra boca un son la libertad
Yo siempre tengo un angel un sable y esta voz
Un escudo violeta y una buena intencion
No vas a derrotarme fantasma camalion
Signatura:
Cualquier duda escríbanme




[Fantasma Camaleon chords][Fantasma Camaleon cifra]
© LaCuerda.net · aviso legal · privacidad · es · en · pt · contacto
DINAMICO