Acordes de Guitarra » P »Los Pericos » Waitin' (Tab)
  • Letra y Acordes
          D#       A#       G#       Gm       Cm
    E-----6--------6--------4--------10-------8----
    A-----8--------6--------4--------11-------8----
    D-----8--------7--------5--------12-------8----
    G-----8--------8--------6--------12-------10---
    B-----X--------X--------X---------X--------X---
    E-----X--------X--------X---------X--------X---
    
    D#                      A#
    I am waiting for your love,
    G#                    A#
    leasing faces in my room
    D#                      A#
    I am waiting for your love
    G#                    A#
    like looking at the moon, oh, oh
    
    Gm         Cm
    Oh, emotional
    Gm      Cm
    
  • Tab p/Bajo
    El bajo empieza en el minuto 0.03: 'I am waitin'
    for your love', justo cuando dice 'love'.
    
    
    Estrofa 1:
    
    G|----------|----------| x3
    D|----33-3--|----------|
    A|11-1--1-1-|----66-6--|
    E|----------|44-4--4-4-|
    
    G|----------|
    D|----33-3--|
    A|11-1--1-1-|
    E|----------|
    
    
    Estribillo:
    
    G|------------------|----------------|
    D|------------------|----------------|
    A|--------3--35653--|--------3—35653-|
    E|3-3-3-3---------5-|3-3-3-3--------5|
    
    
    Puente:
    
    G|----------|----------| x2
    D|----------|----33-3--|
    A|----66-6--|11-1--1-1-|
    E|44-4--4-4-|----------|
    
    
    Estrofa 2:
    
    G|----------|----------| x3
    D|----33-3--|----------|
    A|11-1--1-1-|----66-6--|
    E|----------|44-4--4-4-|
    
    G|----------|
    D|----33-3--|
    A|11-1--1-1-|
    E|----------|
    
    
    Estribillo:
    
    G|------------------|----------------|
    D|------------------|----------------|
    A|--------3--35653--|--------3—35653-|
    E|3-3-3-3---------5-|3-3-3-3--------5|
    
    
    Puente:
    
    G|----------|----------| x2
    D|----------|----33-3--|
    A|----66-6--|11-1--1-1-|
    E|44-4--4-4-|-
  • +
    ¡Colabora con nosotros!
    Envíanos tu versión de esta canción
  • Tutorial
    HD
    Explicado - Como tocar "Waitin" de Los Pericos (original)
    y con MAGIC baen el bajo tutorial#99
    10:12

Letra de Waitin'
I am waiting for your love,
leasing faces in my room
I am waiting for your love
like looking at the moon, oh, oh
Oh, emotional
Devotional.
give me a greatest love,
something there is in heaven,
sometime I just can't hide,
why come we live together now
I am waiting for your love,
we are playing silly game,
I am waiting for your love,
let me standing in the rain, rain, rain
I am waiting for your love...
ESCALA FINAL
TABS BY Efrencho manuel.
E to X-CHO!
Hi-Fi Tabs Labs.
www.myspace.com/efrenchos
Mail: efrenchos@gmail.com
MSN: rammsquake@hotmail.com
Amigos del Jam (FACEBOOK GROUPS)



© LaCuerda.net · aviso legal · privacidad · contacto