Acordes de Guitarra » P »Los Pericos » Torito (Tab)

Torito
Los Pericos

Letras, Acordes y Tabs para Guitarra, Bajo y Ukulele

  • INTRO: [LA SOL]
    
    LA
         Vengan a ver, al nuevo Rey, nuevo Rey
    LA
         No hubo otro igual, al parecer, mejor que él
    
                      LA                               SOL
    Lo llaman Tori, Tori, Torito, Torito
    Va a ir al matadero
    LA                                SOL
    Tori, Tori, Torito, Torito
    Va ir al matadero
    
    Siempre soño con ser leal, ser leal
    Nunca restó su dignidad, dignidad
    
    Lo llaman Tori....
    
    FA#m  RE                  SOL              FA#m
    
  • Intro
    G|------------------------------------------|x2
    D|------------------------------------------|
    A|-55-4-5-0--55-4-5-0----6-7-6-88--6-7-6-88-|
    E|------------------------------------------|
    
    Verso
    G|------------------------------------------|x2
    D|------------------------------------------|
    A|-55-4-5-0--55-4-5-0----6-7-6-88--6-7-6-88-|
    E|------------------------------------------|
    
    Coro
    G|------------------------------------------|x2
    D|------------------------------------------|
    A|-55-4-5-0--55-4-5-0----6-7-6-88--6-7-6-88-|
    E|------------------------------------------|
    
    Verso
    G|------------------------------------------|x2
    D|------------------------------------------|
    A|-55-4-5-0--55-4-5-0----6-7-6-88--6-7-6-88-|
    E|------------------------------------------|
    
    Coro
    G|------------------------------------------|x2
    D|------------------------------------------|
    A|-55-4-5-0--55-4-5-0----6-7-6-88--6-7-6-88-|
    E|------------------------------------------|
    
    Verso 2
  •  Repite dos bases a lo largo de toda la cancion
    
    Intro
    G|------------------------------------------|x2
    D|-777------777------------4-55------4-55---|
    A|-----5-0------5-0----5-7-------5-7--------|
    E|------------------------------------------|
    
    
    
    Vengan a ver al nuevo Rey... (BASE PRINCIPAL)
    G|------------------------------------------|
    D|-777------777------------4-55------4-55---|
    A|-----5-0------5-0----5-7-------5-7--------|
    E|------------------------------------------|
    
    
    
    uuu....uuuu.........Vida dura por la que pasa el...(base 2)
    G|-----------------------------|x4
    D|-------------------7-7-7-----|
    A|------------5555-------------|
    E|-22--222-2-------3-3-3-------|
    
    
    
    
      *Hasta el Final*
    
    
    Escuchá la canción para sacar bien el ritmo.
  • +
    ¡Colabora con nosotros!
    Envíanos tu versión de esta canción

Letra de Torito
Vengan a ver, al nuevo Rey, nuevo Rey
No hubo otro igual, al parecer, mejor que él
Lo llaman Tori, Tori, Torito, Torito
Va a ir al matadero
Tori, Tori, Torito, Torito
Va ir al matadero
Siempre soño con ser leal, ser leal
Nunca restó su dignidad, dignidad
Lo llaman Tori....
Vida dura por la que pasa él
No disimula los golpes dejan marcas
Va a ir al matadero,
Va a ir al matadero
Vengan a ver, al nuevo Rey, nuevo Rey
No hay un rival en la ciudad, mejor que él
Lo llaman Tori.....
Vida dura por la que pasa él
REPITE HASTE EL FINAL: [Fa#m Re Sol]




[Torito chords][Torito cifra]
© LaCuerda.net · aviso legal · privacidad · es · en · pt · contacto