Acordes de Guitarra » P »Los Pericos » No Me Paren (Tab)

No Me Paren
Los Pericos

  • Letra y Acordes
        C*
    
    eI  5
    bI  5 
    gI  5
    DI  X
    AI  X
    EI  X
    
    
    D                  
    24 horas de seguir
    G                                 
    Mirando como pasa el tren
    C*              G  
    Yo me quedo aca 
            D
    No me paren
    D
    No me importa lo que digan
    
  • Tab p/Bajo
    Verso
    G|---------------------------------------------------------------------|x2
    D|---------------------------------33-66-------------------------------|
    A|-5------55---------------------44-----44---22-55---55-------55-------|
    E|--7-5-4---77-5-4--3-13-133-1333----------33-----33---77-5-4---77-5-4-|
    
    Coro
    G|------------------------------------|x2
    D|------------------------------------|
    A|---------------------------66-99----|
    E|-5-3h4p5-3h4p5-3h4p5-3h5-77-----7-3-|
    
    Verso
    G|---------------------------------------------------------------------|x2
    D|---------------------------------33-66-------------------------------|
    A|-5------55---------------------44-----44---22-55---55-------55-------|
    E|--7-5-4---77-5-4--3-13-133-1333----------33-----33---77-5-4---77-5-4-|
    
    Coro
    G|------------------------------------|x2
    D|------------------------------------|
    A|---------------------------66-99----|
    E|-5-3h4p5-3h4p5-3h4p5-3h5-77-----7-3-|
    
    Solo de Tompreta
    G|------------------
  • +
    ¡Colabora con nosotros!
    Envíanos tu versión de esta canción

Letra de No Me Paren
eI 5
bI 5
gI 5
DI X
AI X
EI X
24 horas de seguir
Mirando como pasa el tren
Yo me quedo aca
No me paren
No me importa lo que digan
Estoy buscando una salida
Tarde no me voy
No me paren
Aqui entran 2 guitarras
G1: Sigue la misma progresion (D G C* G D)
G2: Entra una progresion (A A Bm G)
Hay buena semilla entre los dos
Oh Ah Ah Ah
Hay buena semilla entre los dos
Oh Aahhh
Mas y mas lo estoy buscando
Entre el humo voy mirando
Soy explorador
No me paren
Por si acaso no me prendo
Vicios pocos yo no tengo
Dame solucion
No me paren
Hay buena semilla entre los dos
Oh Ah Ah Ah
Hay buena semilla entre los dos
Oh Aahhh
Hay buena semilla entre los dos
Oh Ah Ah Ah
De cada momento lo mejor
Oh Aahhh 2X
Aunque a veces sin saber
Siempre hay algo para ver
Paso el tiempo asi
No me paren
24 horas de seguir
Mirando como pasa el tren
Yo me quedo aca
No me paren
Mas y mas lo estoy buscando

Entre el humo voy mirando
Por si acaso no me prendo
Vicios pocos yo no tengo
Dame solucion
No me paren 3X
Dudas y Comentarios :
jmcyber@a-vip.com



© LaCuerda.net · aviso legal · privacidad · contacto