Acordes de Guitarra » P »Pedro y Pablo » Johnny Bigote (Tab)

Johnny Bigote
Pedro y Pablo

Letras, Acordes y Tabs para Guitarra, Bajo y Ukulele

  • D  Em Emmaj7 Em A7 D  Em A7 D
    
    D                      Em   Emmaj7 Em
    Johnny queria tener un bigote
              A7       D
    que fuera bien grandote
               Em       A7      D
    Queria un mostacho de macho cabal
    
    Porque la gente respeta y escucha
    al hombre de pelo en trucha
    Que amplia su hombria con rostro brutal
    
    Em  A7   Dmaj7
    Johnny Bigote
    Johnny Bigote
    Johnny Bigote
    
    Em A7 D A7 D
    
    
  • Bueno espero que les guste y haber podido hecho lo mejor.
    (x)Intro:
    
    E|-----------------------------------------------------|
    A|-5-5-6-6-7-7-0-7-0-7-7-0-0-5-5-0-0-7-7-0-0-5-5-5-5---|
    D|-----------------------------------------------------|
    G|-----------------------------------------------------|
    
    
    Verso:
    
    Johnny queria tener un bigote....
    E|-----------------------------------------------------|
    A|-5-5-6-6-7-7-0-7-0-7-7-0-0-5-5-0-0-7-7-0-0-5-5-5-5---| (x2)
    D|-----------------------------------------------------|
    G|-----------------------------------------------------|
    
    Estribillo:
    
    Johnny bigote...
    E|--5--5--5--5----------------------|
    A|-5--5--5--5-----------------------|
    D|----------------------------------|
    G|----------------------------------|
    
    Jooooooohny bigote...
    E|--5--5---5--5---------------------|
    A|-7--7---5--5----------------------|
    D|----------------------------------|
    G|----------------------------------|
    
    Johnny bigote + corte
    E|--5--5--5--5----------------------|
    A|-5--5
  • +
    ¡Colabora con nosotros!
    Envíanos tu versión de esta canción

Letra de Johnny Bigote
Johnny queria tener un bigote
que fuera bien grandote
Queria un mostacho de macho cabal
Porque la gente respeta y escucha
al hombre de pelo en trucha
Que amplia su hombria con rostro brutal
Johnny Bigote
Johnny Bigote
Johnny Bigote
Pero por mas que regaba la zona
y se inyectaba hormonas
Seguia desierto su huerto facial
Hasta que un dia le vino la idea
no demasiado fea
Del rizo postizo que uso en carnaval
Pero al colocarselo mal
quedo un poquitito dispar
Y ya no hubo nada que hacer
Un triangulo quedo normal
el otro se vino a piantar
como si estuviera por estornudar
Johnny Bigote
Johnny Bigote
Johnny Bigote
La suma de los angulos interiores de un bigote
es igual a tres sonrisas
(¿y Johnny por qué andaba siempre tan serio?)
Ah, es que el problema estaba en el triangulo de la derecha
(El de los tres lados)
Claro, pobre Johnny che…
El siempre tuvo el pequeño complejo
de parecer conejo
Y ni sonreia ni abria la boca
Rostro de piedra y labios de foca
se le corrio la mueca
Ya nadie respeta, ni al bigote ni a el (pobre Johnny che)
Porque al colocarselo mal
quedo un poquitito dispar
y ya no hubo nada que hacer
Un triangulo quedo normal
el otro se vino a piantar
como si estuviera por estornudar
Johnny Bigote
Johnny Bigote
Johnny Bigote




[Johnny Bigote chords][Johnny Bigote cifra]
© LaCuerda.net · aviso legal · privacidad · es · en · pt · contacto
DINAMICO