Acordes de Guitarra » P »Pedro Pastor » Mi Anarquía (Tab)

Mi Anarquía
Pedro Pastor

Letras, Acordes y Tabs para Guitarra, Bajo y Ukulele

  •   E        F#m7   G#m7       F#m7
    |----------------------------------|
    |----------------------------------|
    |----------------------------------|  x2
    |-----6------7----------9------7---|
    |-7-7---7--9---9--11-11--11--9---9-|
    |----------------------------------|
    
    Riff1 (Pedro lo hace muteando un poco)
    
      E             F#m7         G#m7       F#m7
    |-------------------------------------------------|
    |-------------------------------------------------|
    |-------------------------------------------------|
    |-----6-----------7----------------9----------7---|
    |-7-7---7-------9---9--------11-11--11------9---9-|
    |-------------------------------------------------|
    
    ¿Qué vas a hacer? Me preguntó mientras dormía
    
    
  • +
    ¡Colabora con nosotros!
    Envíanos tu versión de esta canción

Letra de Mi Anarquía
Riff1 (Pedro lo hace muteando un poco)
¿Qué vas a hacer? Me preguntó mientras dormía
Riff1
Que si me marcho ahora mismito no habrá despedida
Riff1
¿Qué vas a hacer? Vístete, corre detrás mía
Riff1
Lo vas a hacer si no me esperarás toda la vida
Y se marchó y por supuesto no hubo despedida
Y ya no se llevó esperando más de media vida
Y nunca más oiré "venga, coño" detrás mía
Y se me caen los ojos piensan en cuando dormía
(Los siguientes acordes van muteados y rasgueando sólo las cuerdas 4ª y 5ª)
E(quintas)
No,no eché la vista más atrás que sé que
F#m7(quintas)
no, que ya nunca volverá más a por
G#m7(quintas)
ti, que la dejaste respirar y se
A(quintas)
comió,el aire de los dos.
Pidiendo amor al río, mintiéndole al vacío
sabiendo que ya nunca volverás
sabiendo que a ella nunca le gustó
Mi anarquía y no
y ya no pienses más que decir
que ya no tienes con quien compartir
ni un buenos días.
Riff1
mmmmm...
A Capella:
No, no eché la vista más atrás
que sé que no, que ya nunca volverá más a por ti
que la dejaste respirar y se comió
el aire de los dos.
Pidiendo amor al río
mintiéndole al vacío
sabiendo que ya nunca volverás
sabiendo que a ella nunca le gustó
Mi anarquía y no
y ya no pienses más qué decir
que ya no tienes con quien compartir
ni un buenos días.
Glosario:




[Mi Anarquía chords][Mi Anarquía cifra]
© LaCuerda.net · aviso legal · privacidad · es · en · pt · contacto
DINAMICO