Acordes de Guitarra » P »Pedro Aznar » Maria Lando (Tab)

Maria Lando
Pedro Aznar

Letras, Acordes y Tabs para Guitarra, Bajo y Ukulele

  • e-----------------------------------------------------
    B-----------------------------------------------------
    G-----------------------------------------------------
    D--5-----------4--4-7-8--7-5----------------------
    A---5---6-6/5---5------------8-7-6--4-5---------
    E----6---------------------------------------2-5-----
    
    Gm             D7                Gm      D7
    La madrugada estalla como una estatua
    Gm                   D7                           Gm    D7
    como una estatua de alas que se dispersan por la ciudad
    Gm              F              Bb  D7
    Y el mediodía canta campana de agua
    Gm/Bb               D7           Gm      D7    Gm
    campana de agua de oro que nos prohibe la soledad
    
    Intro (x1)
    
    Gm            F              Bb
    Y la noche levanta su copa larga
    
  • e--------------|-----------------|----------------|---------------|
    B--------------|-----------------|----------------|---------------|
    G--------------|-----------------|----------------|---------------|
    D--5-----------|----------7--7s8-|-7--------------|---------------|
    A----5----6--5-|-9-----9---------|----10--8--7--6-|---4--5--------|
    E------6-------|----8------------|----------------|-----------2-5-|
    
    
    
    Parte A)
    
    Gm       Eb7    Aº7   D7         Gm   Eb7 - Aº7 - D7
     La madrugada estalla como una estatua
    Gm       Eb7        Aº7             Ab7              (Gm - Eb7 - Aº7 - D7)x2)
     como una estatua de alas que se dispersan por la ciudad
    Cm7         F        Bbmaj7    Ebmaj7
     Y el mediodía canta campana de agua
    Aº7               D7              Ab7            Gm
     campana de agua de oro que nos prohibe la soledad
    
    
  • +
    ¡Colabora con nosotros!
    Envíanos tu versión de esta canción

Letra de Maria Lando
La madrugada estalla como una estatua
como una estatua de alas que se dispersan por la ciudad
Y el mediodía canta campana de agua
campana de agua de oro que nos prohibe la soledad
Y la noche levanta su copa larga
su larga copa larga, luna temprana por sobre el mar
Pero para María no hay madrugada
Pero para María no hay mediodía
Pero para María ninguna luna
alza su copa roja sobre las aguas
María no tiene tiempo (María Landó)
de alzar los ojos
María de alzar los ojos (María Landó)
rotos de sueño
María rotos de sueño (María Landó)
de andar sufriendo
María de andar sufriendo (María Landó)
sólo trabaja
María sólo trabaja, sólo trabaja
María sólo trabaja
y su trabajo es ajeno
espero que lo dsfruten...
cualquier consulta o correccion es bien aceptada




[Maria Lando chords][Maria Lando cifra]
© LaCuerda.net · aviso legal · privacidad · es · en · pt · contacto