Acordes de Guitarra » P »Pedro Aznar » El faro de los ahogados (Tab)

El faro de los ahogados
Pedro Aznar

Letras, Acordes y Tabs para Guitarra, Bajo y Ukulele

  • Intro:
    G|---------------------------|
    D|---------------------------|
    A|-12/14-14-14-14-14-14-14-14|x4
    E|---------------------------|
    
    G|---------16-------------|---------14-------------|
    D|-16-----------16--------|-16-----------16--------|
    A|-14--14------------14---|-14--14------------14---|
    E|------------------------|------------------------|
    
    G|---------14-------------|-----------------------|
    D|-16-----------16--------|-16------17---17-17----|
    A|-14--14------------14---|-14--14--14---14-14-14-|
    E|------------------------|-----------------------|
    
    G|---------16-------------|---------14-------------|
    D|-16-----------16--------|-16-----------16--------|
    A|-14--14------------14---|-14--14------------14---|
    E|------------------------|------------------------|
    
    G|---------14-------------|-----------------------|
    D|-16-----------16--------|-17--------------------|
    A|-14--14------------14---|-14--------------------|
    E|------------------------|-----------------------|
    
    
    versos:
    "Cuando está
  • +
    ¡Colabora con nosotros!
    Envíanos tu versión de esta canción






[El faro de los ahogados chords][El faro de los ahogados cifra]
© LaCuerda.net · aviso legal · privacidad · es · en · pt · contacto