Acordes de Guitarra » P »Pedro Andrea » Transparente (Tab)

Transparente
Pedro Andrea

Letras, Acordes y Tabs para Guitarra, Bajo y Ukulele

  •   C      G      Am     C          C     G       Am      C
    |-------------------------------|--------------------------|
    |-----------------------------3-|-5------------------------|
    |----5-4-5--5-4-5--5-4-5--4-5---|---5-------5\4-2----------|
    |-------------------------------|-----5-3-----------5-3-5--|
    |-3-----------------------------|--------------------------|
    |-------------------------------|--------------------------|
    
      C      G      Am     C            C   G        Am       C
    |-------------------------------|-------------------------12-|
    |-----------------------------3-|-5/6\5-3--------------------|
    |----5-4-5--5-4-5--5-4-5--4-5---|---------5p4-/5-7--4/5-9----|
    |-------------------------------|----------------------------|
    |-3-----------------------------|----------------------------|
    |-------------------------------|----------------------------|
    
      C      G      Am     C          C     G       Am      C
    |-------------------------------|--------------------------|
    |-----------------------------3-|-5------------------------|
    |----5-4-5--5-4-5--5-4-5--4-5---|---5-------5\4-2----------|
    
  • +
    ¡Colabora con nosotros!
    Envíanos tu versión de esta canción

Letra de Transparente
Parte 2:
Acordes:
\
Marcos Alonso Ruiz
[alonsoruiz@redestb.es]

Video de Transparente
[]




[Transparente chords][Transparente cifra]
© LaCuerda.net · aviso legal · privacidad · es · en · pt · contacto