Acordes de Guitarra » P »Paulo Ricardo » A cruz e a espada (Tab)

A cruz e a espada
Paulo Ricardo

  •    D           C#m      Bm              E
    
    E|-10------10--9-----9--5---------------4------5--7-|
    B|----10---------9--------5----7--5--3----5----7--9-|
    G|-------9---------9--------7--9--7--5------4--7--9-|
    D|--0-------0-----------0---------------------------|
    A|--------------------------------------------------|
    E|-------------9-----9------------------------------|
    
       D           C#m      Bm              E
    
    E|-10------10--9-----9--5---------------4------4-|
    B|----10---------9--------5----7--5--3----5------|
    G|-------9---------9--------7--9--7--5------4--4-|
    D|--0-------0-----------0------------------------|
    A|-----------------------------------------------|
    E|-------------9-----9---------------------------|
    
    D              C#m
    Havia um tempo em que eu vivia
    
  • +
    ¡Colabora con nosotros!
    Envíanos tu versión de esta canción

Letra de A cruz e a espada
Havia um tempo em que eu vivia
Um sentimento quase infantil
Havia o medo e a timides
Todo um mau que você nunca viu
Agora eu vejo, aquele beijo era mesmo o fim
Era o começo e o meu desejo se perdeu de mim
E agora eu ando correndo tanto
Procurando aquele novo lugar
Aquela festa o que me resta
Encontrar alguém legal pra ficar
Agora eu vejo, aquele beijo era mesmo o fim
Era o começo e o meu desejo se perdeu de mim
(Introdução)
Agora eu vejo, aquele beijo era mesmo o fim
Era o começo e o meu desejo se perdeu de mim
E agora é tarde e acordo tarde
Do meu lado alguém que eu não conhecia
Outra criança adulterada
Pelos anos que a pintura escondia
Agora eu vejo, aquele beijo era mesmo o fim
Era o começo e o meu desejo se perdeu de mim
Agora eu vejo, aquele beijo era mesmo o fim
Era o começo e o meu desejo se perdeu de mim

Video de A cruz e a espada
[]




[A cruz e a espada chords][A cruz e a espada cifra]
© LaCuerda.net · aviso legal · privacidad · es · en · pt · contacto