Acordes de Guitarra » P »Paulina Tamayo » Avecilla (Tab)

Avecilla
Paulina Tamayo

Letras, Acordes y Tabs para Guitarra, Bajo y Ukulele

  •      C
    E||--------12----|--12----12----12----12----12----12----12----12----12----|
    B||--13----13----|--13----13----13----13----13----13----13----13----13----|
    G||--12----------|--------------------------------------------------------|
    D||--------------|--------------------------------------------------------|
    A||--------------|--------------------------------------------------------|
    E||--------------|--------------------------------------------------------|
    
      E7                       Am
    --15----10----10----12-----8----|---------7-----7-----8-----8----10-----8----|
    --13----12----12----12----10----|--10----10----10----10----10----10----10----|
    --------------------------------|---9----------------------------------------|
    --------------------------------|--------------------------------------------|
    --------------------------------|--------------------------------------------|
    --------------------------------|--------------------------------------------|
    
    
    ---------7-----7-----8-----8----10-----8----|
    --10----10----10----10----10----10----10----|
    ---9----------------------------------------|
    
  • +
    ¡Colabora con nosotros!
    Envíanos tu versión de esta canción

Letra de Avecilla
Ya vez....
Ya vez canora avecilla
que cogía prisionera, será preciso que sepas
que de hoy en adelante vas a hacer mi compañera
cantando como cantabas, perdida entre la maleza
a orillas de un arroyuelo y en el fondo de una arboleda
//No te dejes avecilla....
agobiar por la tristeza// 2X
Pósate sobre mi pecho o
sobre tus alas buenas
Yo cuidare de que nunca te falte lo que apetezcas
tendrás el agua más pura y la semilla más fresca.
Ya vez....
Ya vez canora avecilla
que cogía prisionera, será preciso que sepas
que de hoy en adelante vas a hacer mi compañera
cantando como cantabas, perdida entre la maleza
a orillas de un arroyuelo y en el fondo de una arboleda
//No te dejes avecilla....
agobiar por la tristeza// 2X
Pósate sobre mi pecho o
sobre tus alas buenas
Yo cuidare de que nunca te falte lo que apetezcas
tendrás el agua más pura y la semilla más fresca.
Abril 2017
Hola un gusto colaborar
Me llamo Luis Cubero de Quito - Ecuador
Que viva la música Ecuatoriana
Cualquier duda a undeseounico@gmail.com




[Avecilla chords][Avecilla cifra]
© LaCuerda.net · aviso legal · privacidad · es · en · pt · contacto
DINAMICO