Acordes de Guitarra » P »Pastoral » Deseo del lucido suicida preso (Tab)

Deseo del lucido suicida preso
Pastoral

  • Letra y Acordes
      LAm9                                                                    X2
    e|-----0-------7--7-|-----0-------7-7-|-----0-------7-7-|-----0-------7-7-|
    B|----0-0------0--0-|----0-0------0-0-|----0-0------0-0-|----0-0------0-0-|
    G|---5---5---5------|---5---5---5-----|---7---7---7-----|---7---7---7-----|
    D|--7-----7-7-------|--7-----7-7------|--7-----7-7------|--7-----7-7------|
    A|-0-------0--------|-0-------0-------|-0-------0-------|-0-------0-------|
    E|------------------|-----------------|-----------------|-----------------|
    
      LAm9                                  REm7    (rasgueo)         (rasgueo)
    e|-----0-------7--7-|-----0-------7-7-|----5---7--------|----8---7--------|
    B|----0-0------0--0-|----0-0------0-0-|---6-6--6--------|---6-6--6--------|
    G|---5---5---5------|---5---5---5-----|--5---5-5--------|--5---5-5--------|
    D|--7-----7-7-------|--7-----7-7------|--------7--------|--------7--------|
    A|-0-------0--------|-0-------0-------|-5------5--------|-5------5--------|
    E|------------------|-----------------|-----------------|-----------------|
    
    LAm9 FAmaj7 RE LA SOL LA SOL
    FAmaj7 RE LA SOL LA SOL
    FAmaj7 RE LA SOL LA SOL LAm9
    
    
  • +
    ¡Colabora con nosotros!
    Envíanos tu versión de esta canción

Letra de Deseo del lucido suicida preso
Síl--bame desde lo alto ya
para saber de una sola vez dònde estàs.
Quiero ir a tu encuentro mujer de gris
vestida con la magia triste de la
sabidu-ría total.
Sálva-me de esta jaula
donde mi cuerpo anclado se muere
Flotando entre paisajes de sangre
Saquenme de esta jaula
hombres de metal violento
Saquenme que mañana sin que me maten
mori--ré
Y la Tierra igual seguirá girando
y el tiempo igual seguirá pasando
pero mis palabras te seguirán hablando
Sálva--me
TAB1



© LaCuerda.net · aviso legal · privacidad · contacto
DINAMICO