Tablatura para Guitarra de Las Pastillas del Abuelo: Vida de estafador
Conexión · Inscripción
Letras y Acordes
Pantalla Completa
Imprimir
Versión Texto
Añadir Favorito
Otras Versiones

Mostrar Diagramas
Desfile Automático
Manipular Acordes
Formato del Texto


Las Pastillas del Abuelo
Vida de estafador(TAB)
calidad:
pdab1062
AUTOR: Las Pastillas del Abuelo  corregir
ALBUM: Inedito
Enviado por luciano
Acá está el riff del principio de la canción completo.

Riff

e|-------------------------------------------------------------|
B|-----------3s5-3-2--0-0--------------------------------------|
G|-2s4--4-6-7--------2---2-0-2---------------------------------|
D|-----------------------------0-2-2-4-5-2-4-0-2-2-4-5-4-------|
A|--------------------------------------------2----------------|
E|-------------------------------------------------------------|

e|-------------------------------------------------------------|
B|-----------3s5-3h5p3s2-3-0-0-0-------------------------------|
G|-2s4--4-6-7---------------2---2-0-2--------------------------|
D|------------------------------------2-2-4-5-4-0----2-4-------|
A|------------------------------------------------4-2---2------|
E|-------------------------------------------------------------|

Y los acordes que usa en las estrofas son acordes 5ta (B F# G A)
Este fichero es trabajo propio de su transcriptor y representa su interpretación personal de la canción. El material contenido en esta página es
para exclusivo uso privado, por lo que se prohibe su reproducción o retransmisión, así como su uso para fines comerciales.
© LaCuerda.net · Aviso Legal · Privacidad