Acordes de Guitarra » P »Las Pastillas del Abuelo » Saber Hacer (Tab)

Saber Hacer
Las Pastillas del Abuelo

Letras, Acordes y Tabs para Guitarra, Bajo y Ukulele

  • Intro: A5 ---   D5 |--------|    | F
              ---      |--------|    |
              ---      |--------| X3 |
              -5-7     |--------|    |
              -        |-3-5-3-5|    |
              -        |--------|    |
    (1)
    
    A5       D5-RIFF  A5          D5-RIFF
    No soy así,        quiero decir,
    A5         D5  F
    dentro de mí, hay más y mejor.
    REPITE
    Pero es que aquí, sobrevivir,
    quiere decir, solo pensá en vos.
    
    (2)
    Gm      F     C
    Algunos saben amar,
    Gm      F     D#
    
  • Intro: (E5, A5)                     (C)
    |-------------------      |-------------------
    |---0-3--0----------      |-------1-0---------
    |----------2--0h2-0-  x3  |-----0-----0h2-0--- (Rápido)
    |-2--------2--------      |---2-------------3-
    |-2-----------------      |-3-----------------
    |-------------------      |-------------------
    
    |-------------------      |-------------3-----
    |---0-3--0----------      |-------1-3-1-------
    |----------2--0h2-0-  x3  |-----0-------------
    |-2--------2--------      |---2---------------
    |-2-----------------      |-3-----------------
    |-------------------      |-------------------
    
    
    *Cuando comienza a cantar la toco igual, o tambien queda bien rasgeando*
    
    
    Estribo
    
  • +
    ¡Colabora con nosotros!
    Envíanos tu versión de esta canción

Letra de Saber Hacer
- |-3-5-3-5| |
(1)
No soy así, quiero decir,
dentro de mí, hay más y mejor.
REPITE
Pero es que aquí, sobrevivir,
quiere decir, solo pensá en vos.
(2)
Algunos saben amar,
otros saben lastimar.
(1)
Yo soy así, debo decir,
dentro de mí, solo hay confusión.
Pero también se distinguir donde hay
siquiera una chispa de amor.
(2)
Algunos saben temer,
otros saben aprender.
(3)
Y qué es saber si no es hacer,
lo que una hábito hace aprender.
El hábito es entonces
quién hace aprender a saber.
(3)
Y qué es saber si no es hacer,
lo que una hábito hace aprender.
El hábito es entonces
quién hace aprender a saber.
El hábito hace aprender a saber.
espero les guste, vi una version del pity
que hizo con la criolla y lo lleva a MI.
Serian los acordes asi:
que da muy bien en ese tono! y jugando con los acordes
le da un toque especial.




[Saber Hacer chords][Saber Hacer cifra]
© LaCuerda.net · aviso legal · privacidad · es · en · pt · contacto
DINAMICO