Acordes de Guitarra » P »Las Pastillas del Abuelo » Que pretendo no saber? (Tab)

Que pretendo no saber?
Las Pastillas del Abuelo

Letras, Acordes y Tabs para Guitarra, Bajo y Ukulele

  • E/----------------------------------------------------------------------
    B/----------------------------------------------------------------------
    G/----------------------------------------------------------------------
    D/-----------3h4-----3h4-----3h4-----3h4-----3h4-----3h4-----3h4-----3h4
    A/-0-3-4-5-5-----5-5-----5-5-----5-5-----3-3-----3-3-----3-3-----3-3----
    E/----------------------------------------------------------------------
    
    E/-----------------------------------------------------------------|
    B/-----------------------------------------------------------------|
    G/-----3h4-----3h4-----3h4-----3h4---------------------------------|x2
    D/-5-5-----5-5-----5-5-----5-5---------3h4-----3h4-----3h4-----3h4-|
    A/---------------------------------5-5-----5-5-----5-5-----5-5-----|
    E/-----------------------------------------------------------------|
    
    
    D                                                    C add9
    Con el mismo dedo que te toco el timbre puedo presionar tu herida.
    D                                             C add9
    Con la misma mano que te acaricio yo puedo meterte faca.
    D                                    C add9
    
  • E/----------------------------------------------------------------------
    B/----------------------------------------------------------------------
    G/----------------------------------------------------------------------
    D/-----------4-4-----4-4-----4-4-----4-4-----4-4-----4-4-----4-4-----4-4
    A/-0-3-4-5-5-----5-5-----5-5-----5-5-----3-3-----3-3-----3-3-----3-3----
    E/----------------------------------------------------------------------
    
    E/-----------------------------------------------------------------|
    B/-----------------------------------------------------------------|
    G/-----4-4-----4-4-----4-4-----4-4---------------------------------|x2
    D/-5-5-----5-5-----5-5-----5-5---------4-4-----4-4-----4-4-----4-4-|
    A/---------------------------------5-5-----5-5-----5-5-----5-5-----|
    E/-----------------------------------------------------------------|
    
    
    D                                                    C
    Con el mismo dedo que te toco el timbre puedo presionar tu herida.
    D                                             C
    Con la misma mano que te acaricio yo puedo meterte faca.
    D                                    C
    
  • +
    ¬°Colabora con nosotros!
    Envíanos tu versión de esta canción

Letra de Que pretendo no saber?
Con el mismo dedo que te toco el timbre puedo presionar tu herida.
Con la misma mano que te acaricio yo puedo meterte faca.
Con la misma que digo mam√° puedo anular t√ļ autoestima.
Con el mismo empujón que te ayuda a crecer puedo tirarte de la hamaca.
Y así lastimarte,cortarte las piernas,
llenarte de miedos,hacer que no quieras
ganar este juego que tanto vale la pena.
Yo puedo asfixiarte,reducirte a cero,
hacer que no quieras sacarte el sombrero
ante este milagro que algunos llaman vida.
De la misma forma que hago una revolución te hago un golpe de estado.
Del fernet puedo ser un curda feliz o ser víctima y victimario.
De la manipulación yo puedo hacer el bien pero también maldades.
De paso ca√Īazo que no doy por darte quito posibilidades.
Y yo ac√° re puesto,explicando que es esto,
de que los opuestos,que est√°n dentro nuestro,
si bien son opuestos,también son complementarios.
Dentro mío bailan Hitler y Mahatma,
Buda y Zorba el griego,Mariano Grondona y el Diego,
el amor y el dinero,Dolina y el mono Mario.
Para hacerme responsable de mis facultades asesinas sufro y muero.
Para reírme hasta el llanto cada tanto lloro hasta reírme a pleno.
Para mí que menos,más,mejor,peor,muy,tan,son trampas de la mente.
Para mí que clasifica lo inclasificable porque teme a la muerte.
Somos cielo y tierra; agua,fuego; tristeza,alegría;
consuelo,franqueza; placer,agonia;
soy sue√Īo y desvelo; quilombo y armonia.
Si no pongo el freno a mi mente no estoy el presente,
mi cuerpo no siente,estoy como ausente,
casi trasparente,como quien dice demente.
Hasta cuando sin corazón por el que diran sobre nosotros
seg√ļn mi opini√≥n vivir bajo un pulgar
no te deja ir tras algo profundo.
Antes de roscar el perdón desde la nada
voy hacia el todo, del todo a la nada,
del me tomo al como y haciendo cambio el mundo.
A la circunstancia la boicotea el tiempo.
A las importancias los miedos.
A las circunstancias las boicotea el tiempo.
A las importancias los miedos.




[Que pretendo no saber? chords][Que pretendo no saber? cifra]
© LaCuerda.net · aviso legal · privacidad · es · en · pt · contacto