Acordes de Guitarra » P »La Parranda Magna » Mujer Maldad (Tab)

Mujer Maldad
La Parranda Magna

Letras, Acordes y Tabs para Guitarra, Bajo y Ukulele

  •      G   D  Em    
    e|---3---5---7---|
    B|---3---7---8---|
    G|---4---7---9---|
    D|---5---7---9---|
    A|---5---5---7---|
    E|---3---5---7---|
    
    Intro
    e|------------------------------------------------------------------|
    B|------------------------------------------------------------------|
    G|------------------------------------------------------------------|
    D|------------------------------------------------------------------|
    A|---2-3-2-0-----2-3-2-0-------2-3-2-0-------2-3-2-0----------------|
    E|-----------3-----------3/5-----------3/7-----------3--3-5-7-5-3---|
    
    G  D  Em  D
    
                 G             D
    Se que tu vas, vas a llorar,
    
  • A E F#m D E
               A            E
    Se que tu vas, vas a llorar,
               F#m           D         E
    cuando me vaya, para ya noo regresar,
                A            E
    piensa que si yo ya no estoy,
                   F#m                   D
    Con quien te reiras, con quien dormiras,
                   E
    con quien lo haras
    
           A             E              F#m                 D  E
    Una mujer que sabe amar, nunca me hubiera hecho lo que tu,no
             A             E            F#m            D
    me detendre al proximo bar y te llamare pa recodarte
              E               A
    que te ame y no lo hare mas.
    
                A                    F#m
    
  •       G         D         Em      
    G|---------|---------|---------|
    D|---------|-----7---|-----9---|
    A|-----5---|---5-----|---7-----|
    E|---3-----|---------|---------|
    
    Solo sigan el tab corregido para guitarra y ya.
  • +
    ¡Colabora con nosotros!
    Envíanos tu versión de esta canción

Letra de Mujer Maldad
Se que tu vas, vas a llorar,
cuando me vaya, para ya no regresar,
piensa que si yo ya no estoy,
¿ Con quien te reiras, con quien dormiras, con quien lo haras?
Una mujer que sabe amar, nunca me hubiera hecho lo que tu,
me detendre al proximo bar y te llamare pa recodarte
que te ame y no lo hare mas.
( en esta parte solamente Power Chords y distorcion )
No llores mas, que en tu vida habra,
mas hombres para escoger y yo ya no estare.
Me pondre borracho y no te volvere a ver.
Me pondre borracho y no te volvere a ver.
PADRE SANTO !!!!
No llores mas, que en tu vida habra,
mas hombres para escoger y yo ya no estare.
Me pondre borracho y no te volvere a ver.
Me pondre borracho y no te volvere a ver.
Una mujer que sabe amar, nunca me hubiera hecho lo que tu,
me detendre al proximo bar y te llamare pa recodarte
que te ame y no lo hare mas, pa recordarte que te ame
y no la hare mas, pa recordarte que te ame y no hare mas.
Dedicada para Mariel Cuellar.
Te Amo Chiquita.

Video de Mujer Maldad
[]




[Mujer Maldad chords][Mujer Maldad cifra]
© LaCuerda.net · aviso legal · privacidad · es · en · pt · contacto