Tablatura para Bajo de Paralamas: Aonde es que eu va
Conexión · Inscripción
Letras y Acordes
Pantalla Completa
Imprimir
Versión Texto
Añadir Favorito
Otras Versiones

Mostrar Diagramas
Desfile Automático
Formato del Texto


Aonde es que eu va(BAJ)

Paralamas

calidad:
para0012
AUTOR: Paralamas  corregir
ALBUM: desconocido
Enviado por Marianito
intro
G|-7-9--|
D|----7-|
A|------|
E|------|

Riff 1: 'Olhos fechados...'
G|--------------------------------|
D|--------------------------------| (x4)
A|----------------3-3--3-3-3--5-7-|
E|-5-5-5-5-5-5-5-5----5---5------5|

Riff 2: Estribillo ('E aonde quer que eu vá...')
G|----------------------------------------------|
D|----------------------------------------------|
A|-8-8-8--8-8-8-8--5-5-5-5-5---3\10-8-2-2-3-0---|
E|--------------------5---5---------------------|

G|--------|
D|-----5--|
A|-5-7----|
E|-------5|

Riff 1: 'Nao sei bem certo...'
G|---------------------------------|
D|---------------------------------| (x4)
A|----------------3-3--3-3-3--5-7--|
E|-5-5-5-5-5-5-5-5----5---5------5-|

Riff 3: 'Longe daqui... Longe de tudo...'
G|---------------------------------------------------|
D|---------------------------------------------------| (x2)
A|-5-5-5-5-5-5-2-2-2-2-2-2-4-4-4-4-4-4-4-------------|
E|---------------------------------------3-3-3-3-3-3-|

G|-----------------------------------------------------------------|
D|--------------------------------------------------------------5--|
A|-5-5-5-5-5-5-5-2-2-2-2-2-2-4-4-4-4-4-4-4-4-5----3----2-----5-7---|
e|---------------------------------------------------------------5-|

Riff 1: 'Olhos fechados...'
G|--------------------------------|
D|--------------------------------| (x4)
A|----------------3-3--3-3-3--5-7-|
E|-5-5-5-5-5-5-5-5----5---5------5|

Riff 2: Estribillo ('E aonde quer que eu vá...')
G|----------------------------------------------|
D|----------------------------------------------|
A|-8-8-8--8-8-8-8--5-5-5-5-5---3\10-8-2-2-3-0---|
E|--------------------5---5---------------------|

final
G|---------|
D|-----5---|
A|-5h7-----|
E|-------5-|


Dudas, quejas, correcciones, etc. manden mail
Este fichero es trabajo propio de su transcriptor y representa su interpretación personal de la canción. El material contenido en esta página es
para exclusivo uso privado, por lo que se prohibe su reproducción o retransmisión, así como su uso para fines comerciales.


© LaCuerda.net · Aviso Legal · Privacidad