Tablatura para Bajo de Pappo: No se ingles
Conexión · Inscripción
Letras y Acordes
Pantalla Completa
Imprimir
Versión Texto
Añadir Favorito
Otras Versiones

Mostrar Diagramas
Desfile Automático
Formato del Texto


No se ingles(BAJ)

Pappo

calidad:
papp0342
AUTOR: Pappo
ALBUM: Auto rojo
Enviado por victor
G|--------------------------------------------------|
D|--------------------------------------------------|
A|-------------------------5--5--5-5---2--------2-1-|
E|-0--0--0-0---3--3--3-3------------------0-2-3-----|
                                          (2 veces)
G|------------------------------------|--------------|-------|
D|------------------------------------|--------------|-------|
A|-------5-7---------------5--5--5-5--|-2--------2-1-|-------|
E|-0--0--------3--3--3-3--------------|----0-2-3-----|-0-----|
      “Es el héroe de la carretera, hasta que un día como cualquiera”
G|------------------------------------------------------
D|------------------------------------------------------
A|------------------------------------------------------
E|-3---3-3-3-3-3-3-3-3-3-3-3-3-3-3-3-3-3-3-3-3-3-3-3-3-3

G|----------------------------------------------------------
D|----------------------------------------------------------
A|--------------------------7-------------------------------
E|-0---0---0---0---0---0---0------0---0---0---0---0---0----7
      “A la salida de un high school, se llevo puesta una chica de azul”
G|------------------------------------------------------
D|------------------------------------------------------
A|------------------------------------------------------
E|-3---3-3-3-3-3-3-3-3-3-3-3-3-3-3-3-3-3-3-3-3-3-3-3-3-3
                    “chica de azul”
G|-----------------------------------------------------------
D|-----------------------------------------------------------
A|--------------------------7--------------------------------
E|-0---0---0---0---0---0---0------0---0---0---0---0---0---7-0
“Perdoneme señor ingles no entiendo, espero que usted
G|------------------------------------------------------------
D|------------------------------------------------------------
A|------------------------------------------------------------
E|-7---7-7-7-7-7-7-7-7-7-7-7-7-7-3---3-3-3-3-3-3-3-3-3-3-3-3-3
“comprenda mi terrible confusión…                     …hey!”
G|------------------------------------------------------------
D|------------------------------------------------------------
A|------------------------------------------------------------
E|-5---5-5-5-5-5-5-5-5-5-5-5-5-5-7---7-7-7-7-7-7-7-7-7-7-7-7-7
“If i was born in Argentina, esa chica divina”
G|------------------------------------------------------------
D|------------------------------------------------------------
A|------------------------------------------------------------
E|-7---7-7-7-7-7-7-7-7-7-7-7-7-7-3---3-3-3-3-3-3-3-3-3-3-3-3-3
“perdio su vida, lamento, en mi capot                 Aaaa!
G|------------------------------------------------------------
D|------------------------------------------------------------
A|------------------------------------------------------------
E|-5---5-5-5-5-5-5-5-5-5-5-5-5-5-7---7-7-7-7-7-7-7-7-7-7-7-7-7
(aca empieza el solo del carpo)
G|--------------------------------------------------|
D|--------------------------------------------------|
A|-------------------------5--5--5-5---2--------2-1-|
E|-0--0--0-0---3--3--3-3------------------0-2-3-----|
                                          (2 veces)
G|------------------------------------|--------------|------------------|
D|------------------------------------|--------------|------------------|
A|-------5-7---------------5--5--5-5--|-2--------2-1-|------------------|
E|-0--0--------3--3--3-3--------------|----0-2-3-----|-0-------10/d-----|
      “Ya no puedo ni pagar la fianza, porque el dinero no me alcanza”
G|------------------------------------------------------
D|------------------------------------------------------
A|------------------------------------------------------
E|-3---3-3-3-3-3-3-3-3-3-3-3-3-3-3-3-3-3-3-3-3-3-3-3-3-3

G|----------------------------------------------------------
D|----------------------------------------------------------
A|--------------------------7-------------------------------
E|-0---0---0---0---0---0---0------0---0---0---0---0---0----7
 “Necesito por favor mis venas las saque usted entre la espada y la pared”
G|------------------------------------------------------
D|------------------------------------------------------
A|------------------------------------------------------
E|-3---3-3-3-3-3-3-3-3-3-3-3-3-3-3-3-3-3-3-3-3-3-3-3-3-3

G|-----------------------------------------------------------
D|-----------------------------------------------------------
A|--------------------------7--------------------------------
E|-0---0---0---0---0---0---0------0---0---0---0---0---0---7-0
“Yo no quiero vacaciones por no saber ingles”
G|------------------------------------------------------------
D|------------------------------------------------------------
A|------------------------------------------------------------
E|-7---7-7-7-7-7-7-7-7-7-7-7-7-7-3---3-3-3-3-3-3-3-3-3-3-3-3-3
“en el llonbepa catorce, unidad tres!”
G|------------------------------------------------------------
D|------------------------------------------------------------
A|------------------------------------------------------------
E|-5---5-5-5-5-5-5-5-5-5-5-5-5-5-7---7-7-7-7-7-7-7-7-7-7-7-7-7
“High scholl, stop and go,       Carrefour!, Sprayette!…
G|------------------------------------------------------------
D|------------------------------------------------------------
A|------------------------------------------------------------
E|-7---7-7-7-7-7-7-7-7-7-7-7-7-7-3---3-3-3-3-3-3-3-3-3-3-3-3-3
…anda a cagar!,        no se ingles!”
G|------------------------------------------------------------
D|------------------------------------------------------------
A|------------------------------------------------------------
E|-5---5-5-5-5-5-5-5-5-5-5-5-5-5-7---7-7-7-7-7-7-7-7-7-7-7-7-7

G|--------------------------------------------------|
D|--------------------------------------------------|
A|-------------------------5--5--5-5---2--------2-1-|
E|-0--0--0-0---3--3--3-3------------------0-2-3-----|
                                          (2 veces)
G|------------------------------------|--------------|
D|------------------------------------|--------------|
A|-------5-7---------------5--5--5-5--|-2--------2-1-|
E|-0--0--------3--3--3-3--------------|----0-2-3-----|
Final
G|-------------------------------------------------------|
D|-------------------------------------------------------|
A|-2--------2-1----------------------------7/d-----------|
E|----0-2-3-----0-6-0-5-0-3-0------0---------------------|

No se ingles (Pappo - Yulie Ruth)

Es el héroe de la carretera,
hasta que un día como cualquiera;
a la salida de un High School,
se llevó puesta una chica de azul, chica de azul!.

Perdóneme, señor, inglés no entiendo,
espero que usted comprenda mi terible confusión, eh!
if I was born in Argentina, esa chica divina,
perdió su vida, lamento, en mi capot, ah!.

Yo no puedo ni pagar la fianza,
porque el dinero no me alcanza;
necesito por favor mis venas,
las saque usted entre la espada y la pared.

Yo no quiero vacaciones, por no saber inglés,
en el llonbepa catorce, unidad tres;
High School, Stop and Go, Carrefour, Sprayette,
andá a cagar... no se inglés!.

Mientras su musica se siga tocando y escuchando el carpo jamas morira,
vivira eternamente en la memoria de todos...
e-mail: zarathustra4321@hotmail.com
Este fichero es trabajo propio de su transcriptor y representa su interpretación personal de la canción. El material contenido en esta página es
para exclusivo uso privado, por lo que se prohibe su reproducción o retransmisión, así como su uso para fines comerciales.

© LaCuerda.net · Aviso Legal · Privacidad